New Bomb Turks - Jukebox Lean Chords & Tabs

 

Jukebox Lean Chords & Tabs

New Bomb Turks Chords & Tabs

Version: 1 Type: Bass Tab 0 ratings
1 star 2 stars 3 stars 4 stars 5 stars
comments

Jukebox Lean Bass Tab

Song: Jukebox lean
Band: New bomb turks
Album: ....punk o rama 2
tabbed by: Carlos Pino


G:----------------------------------------------------
D:----------------------------------------------------
A:---------------------------5-3------------5-3-------
E:-5-5-5-5-5-5-5-5--5-5-5-5-------5-5-5-5-5------5-5-5
[ Tab from: http://www.guitartabs.cc/tabs/n/new_bomb_turks/jukebox_lean_btab.html ]
G:-----------------------------------------------
D:-----------------------------------------------
A:-5-5-5-5-5-5-6-7-7-7-7--10-10-10-10-10---------
E:-----------------------------------------------

    chorus
G:----------------------------
D:----------------------------
A:-------3-3-5------5---------
E:--5-5---------3-3-----------

Comments