Nevermore - The Sorrowed Man Chords & Tabs

 

The Sorrowed Man Chords & Tabs

Nevermore Chords & Tabs

Version: 1 Type: Tab 0 ratings
1 star 2 stars 3 stars 4 stars 5 stars
comments

The Sorrowed Man Tab

NEVERMORE - The sorrowed man
from the CENTURY MEDIA EP "In Memory"

			TABBED BY HARIS DURAKOVIC


Guitar 1

whole song acoustic
Riff 1
|-----0-------0-------0---------------------0----------------------------|
|---1---1---1---1---1---1---1-----------0-----0--------------0-------0---|
|-0-------0-------4-------2-----------0---0-----0----------0---0---0---0-|
|-----------------------------4/5-4-2-------------0-2-2/5~-------4-------|
|------------------------------------------------------------------------|
|------------------------------------------------------------------------|
 


|-----0-------0---------0-------0-------0-------0-------0-------0---|
|---1---1---1---1-----4---4---4---4---3---3---3---3---0---0---0---0-|
|-2-------2-------2/5-------5-------4-------4---------------1-------|
|---------------------------------------------------2---------------|
|-------------------------------------------------------------------|
|-------------------------------------------------------------------|


Fill in
|---------|
|---------|
|---------|
|-2-0-----|
|-----3-2-|
|---------|


|-------------------------------------------------------0-------|
|-------0-1~-----------0-1~-------------------------------0-----|
|-----2------2-------2------2-------------------------1-----1---|
|---2----------2---2----------2-----3-----3---------2---------2-|
|-0--------------0----------------3-----3-----3---2-------------|
|-------------------------------1-----1-----1---0---------------|


|-----0-----0-----1-----1-----1-0-|-----0-----0-----1-----1-----1-0-|
|---3-----3-----3-----3-----3-----|---2-----2-----2-----2-----2-----|
|---------------------------------|---------------------------------|
|-0-----0-----0-----0-----0-------|-0-----0-----0-----0-----0-------|
|---------------------------------|---------------------------------|
|---------------------------------|---------------------------------|


|-----0-----0-----1-|-----8-----8-----6-----6-----6---|
|---3-----3-----3---|-------6-----6-----6-----6-----6-|
|-------------------|---7-----7-----7-----7-----7-----|
|-0-----0-----0-----|-0-------------------------------|
|-------------------|---------------------------------|
|-------------------|---------------------------------|


				   2nd time ending 
|-----6-----6-----5-----5-----5---|-----5-----|
|-------4-----4-----4-----4-----4-|-----4-----|
|---3-----3-----3-----3-----3-----|-----3-----|
|-0-------------------------------|-----0-----|
|---------------------------------|-----------|
|---------------------------------|-----------|



Guitar 2
[ Tab from: http://www.guitartabs.cc/tabs/n/nevermore/the_sorrowed_man_tab.html ]
electric
Lead 1
|------------------------------------------------------------------|
|-15bfr-(15bf~)---12h15p12~----------------------------------------|
|-----------------------------11-12~---11-12~---11~----------------|
|-----------------------------------------------------12-12bfr--9~-|
|------------------------------------------------------------------|
|------------------------------------------------------------------|



|----19~--19bhr--17~--20-20-20-20bfr-19h20p19p17h19~-17~-16~-|
|------------------------------------------------------------|
|------------------------------------------------------------|
|-19---------------------------------------------------------|
|------------------------------------------------------------|
|------------------------------------------------------------|


|-----------------------------------------------------------|
|-18-17-----------------------------------------------------|
|-------19-17-19-19bfr-(19bf~r)-19p17p16~-14-13~--14-16-17~-|
|-----------------------------------------------------------|
|-----------------------------------------------------------|
|-----------------------------------------------------------|



acoustic
Lead 2						     1.      2.
|---------------------------------------------------|------|------------|
|---------------------------------------------------|------|------------|
|--9--9-7--9~----9--9-7--9~----9--9-7--9~--10--9-7~-|-5-4~-|------------|
|-10-10-9-10~---10-10-9-10~---10-10-9-10~--12-10-9~-|-7-6~-|-2-0-----6~-|
|---------------------------------------------------|------|-----3-2-7~-|
|---------------------------------------------------|------|------------|



electric
Lead 3
|-22bfr~--20~--18~--18h20p18p17~--15bfr-13-12~-12h13-13~-|
|--------------------------------------------------------|
|--------------------------------------------------------|
|--------------------------------------------------------|
|--------------------------------------------------------|
|--------------------------------------------------------|



|-17-16-15-13-16-15-13h15p13----13-----------|
|----------------------------15----15----15~-|
|-------------------------------------14-----|
|--------------------------------------------|
|--------------------------------------------|
|--------------------------------------------|

Lead 4
|------------------------------------17-17-17~--17-17-15bfr-|
|-----------------------------------------------------------|
|-12bf~--12bfr~--14bh~--17-15-14bhr-------------------------|
|-----------------------------------------------------------|
|-----------------------------------------------------------|
|-----------------------------------------------------------|

|-15-13h15p13----13----------15-------------|
|-------------16----16-15-13----13bfr---1~~-|
|-------------------------------------------|
|-------------------------------------------|
|-------------------------------------------|
|-------------------------------------------|
Comments