Nevermore - River Dragon Has Come Chords & Tabs

 

River Dragon Has Come Chords & Tabs

Nevermore Chords & Tabs

Version: 1 Type: Tab 0 ratings
1 star 2 stars 3 stars 4 stars 5 stars
comments

River Dragon Has Come Tab

   
EbArtist:Nevermore
Song:River Dragon has Come
CD:Dead Heart in a Dead World
Tuning: Tune Down Half a Step (Low To High: Eb Ab Db Gb Bb Eb)
Tabbed by: Mike Morrow(theremembranceballad@hotmail.com)
Corrections? Email Me
-----------------------------------------------------------------------------
Thhis song is not easy but my tab is 100% right.

Eb--18-15--------------------------------------------|
Ab--------17-------17-16-15-14----14-----------------|
Db-----------18-15-------------17----15----------15--|
Gb--------------------------------------17-14-17-----|
Bb---------------------------------------------------|
Eb---------------------------------------------------|

Eb----------------15-18/21\18-15---------------------|
Ab-14-17-------17----------------17-------17-16-15---|
Db-------15-18----------------------18-15------------|
Gb---------------------------------------------------|
Bb---------------------------------------------------|
Eb---------------------------------------------------|

Eb----------------------------------------18\15------|
Ab-14----14----------------14-17-------17------------|
Db----17----15----------15-------15-18---------------|
Gb-------------17-14-17------------------------------|
Bb---------------------------------------------------|
Eb---------------------------------------------------|
[ Tab from: http://www.guitartabs.cc/tabs/n/nevermore/river_dragon_has_come_tab.html ]
Eb-12------------------------------------------------|
Ab----14-------14-13-12-11----11----------------11---|
Db-------15-12-------------14----12----------12------|
Gb----------------------------------14-11-14---------|
Bb---------------------------------------------------|
Eb---------------------------------------------------|

Eb--/17-14-------------------------------------------|
Ab---------16-------16-15-14-13----13----------------|
Db------------17-14-------------16----14----------14-|
Gb---------------------------------------16-13-16----|
Bb---------------------------------------------------|
Eb---------------------------------------------------|

Eb-----------------14-17-17/20\17-14-------------------|
Ab--13-16-------16-------------------16-------16-15-14-|
Db--------14-17-------------------------17-14----------|
Gb-----------------------------------------------------|
Bb-----------------------------------------------------|
Eb-----------------------------------------------------|

Eb-----------------------------------------14-17\14---|
Ab--13----13----------------13-16-------16------------|
Db-----16----14----------14-------14-17---------------|
Gb--------------16-13-16------------------------------|
Bb----------------------------------------------------|
Eb----------------------------------------------------|

Eb--11------------------------------------------------|
Ab-----13-------13-12-11-10----10---------------------|
Db--------14-11-------------13----11----------11------|
Gb-----------------------------------13-10-13---------|
Bb----------------------------------------------------|
Eb----------------------------------------------------|







Comments