Nevermore - Believe In Nothing Chords & Tabs

 

Believe In Nothing Chords & Tabs

Nevermore Chords & Tabs

Version: 1 Type: Tab 0 ratings
1 star 2 stars 3 stars 4 stars 5 stars
comments

Believe In Nothing Tab

Band : Nevermore
Song : Believe In Nothing
Album : Dead Heart In A Dead World

yer there aint any soongs from NEVERMORE and i think they shoiuld hav a few coz
they r a fair kick ass band so yerp this is as good as i could b bothered to do
so YERRRP

[ Tab from: http://www.guitartabs.cc/tabs/n/nevermore/believe_in_nothing_tab.html ]
-------------------------------------------
-------------------------------------------
-------------------------------------------
-------------------------------------------
--5-5-x-x-9-(9)-9-99--4-4-x-x-7-(5)-7-77---
--3-3-x-x-7-(7)-7-77--2-2-x-x-5-(5)-5-55---


--------------------------------------------------------------------------
--------------------------------------------------------------------------
--------------------------------------------------------------------------
--------------------------------------------------------------------------
--5-5-x-x-9-(9)-9-11-(11)-9--4-4-x-x-6-(6)--------------------------------
--3-3-x-x-7-(7)-7-9--(9)--7--2-2-x-x-4-(4)--------------------------------
Comments