Nevermind - Violence Chords & Tabs

 

Violence Chords & Tabs

Nevermind Chords & Tabs

Version: 2 Type: Tab 0 ratings
1 star 2 stars 3 stars 4 stars 5 stars
comments

Violence Tab

   
*************VIOLENCE************

---------------------------------

Music by Philipp Nebel
Lyrics by Philipp Nebel

---------------------------------

Intro

E  C  A  G

E  C  A  G

VERSE I

E      C    A        G
Actual everything is priceless
  E             C       A   G
except for your death delivery
E       C     A       G
nothing is concerning me
  E       C       A      G
unless my life is really free
    E     C     A       G
the ideal of my culture is
E       C         A     G
nothing more than me
     E         C        A       G
that shouldn't sound to selfish cause
  E     C      A    G
I wanna die in poverty

CHORUS

H             A
  There isn't anything,
       G            F#
wich i really can ignore
H             A
  There isn't anything,
        G             F#
wich is really such a bore
H             A
  There isn't anything,
       G            F#
wich i really can ignore
H             A
  There isn't anything,
        G             F#
wich is really such a bore

VERSE II

   E       C        A   G
At least I wanna be innocent
       E      C        A     C
when I get to statan's home
  E    C             A    G
I ever prayed to the holy god
      E      C       A      G
where ever i was and roamed
E         C           A       G
what does your health mean to me
     E     C       A    G
when i get sick by it
E       C         A    G
i don't need your vaccination
     E        C      A       G
in a field of rabies i'm the split

CHORUS

H             A
  There isn't anything,
       G            F#
wich i really can ignore
H             A
  There isn't anything,
        G             F#
wich is really such a bore
H             A
  There isn't anything,
       G            F#
wich i really can ignore
H             A
  There isn't anything,
        G             F#
wich is really such a bore

SOLO
[ Tab from: http://www.guitartabs.cc/tabs/n/nevermind/violence_tab_ver_2.html ]
    E      C       A     G       E      C       A      G
E-||-------------|-------------|-------------|-------------|
B-||-------------|-------------|-------------|-------------|
G-||-------------|-------------|-------------|-------------|
D-||-------------|-------------|-------------|-------------|
A-||--7-9--10-12-|-14-12-10-9--|--7-7-5--10--|--7-7-5--10--|
E-||-------------|-------------|-------------|-------------|

    E      C       A     G       E      C       A      G
E-||-------------|-------------|-------------|-------------|
B-||-------------|-------------|-------------|-------------|
G-||-------------|-------------|-------------|-------------|
D-||-------------|-------------|-------------|-------------|
A-||--7-9--10-12-|-14-12-10-9--|--7-7-5--10--|--7-7-5--10--|
E-||-------------|-------------|-------------|-------------|

    E      C       A     G       E      C       A      G
E-||-------------|-------------|-------------|-------------|
B-||-------------|-------------|-------------|-------------|
G-||-------------|-------------|-------------|-------------|
D-||-------------|-------------|-------------|-------------|
A-||--7-9--10-12-|-14-12-10-9--|--7-7-5--10--|--7-7-5--10--|
E-||-------------|-------------|-------------|-------------|

    E      C       A     G       E      C       A      G
E-||-------------|-------------|-------------|-------------|
B-||-------------|-------------|-------------|-------------|
G-||-------------|-------------|-------------|-------------|
D-||-------------|-------------|-------------|-------------|
A-||--7-9--10-12-|-14-12-10-9--|--7-7-5--10--|--7-7-5--10--|
E-||-------------|-------------|-------------|-------------|

VERSE III

     E       C           A    G
When all are healthy and I am sick
     E    C           A       G
then I am healthy but I'm not sane
    E          C      A       G
The virus just didn't come to me
     E       C        A         G
just take my pill and don't get blamed
   E   C         A  G
my occupation is violence
    E     C          A       G
I'm not allowed to decieve myself
E     C               A     G
I'm a judged piece of pharmacy
    E     C        A       G
I'm not allowed to kill my health

CHORUS

H             A
  There isn't anything,
       G            F#
wich i really can ignore
H             A
  There isn't anything,
        G             F#
wich is really such a bore
H             A
  There isn't anything,
       G            F#
wich i really can ignore
H             A
  There isn't anything,
        G             F#
wich is really such a bore
Comments