Nevermind - Natte Kut Natte Aars Chords & Tabs

 

Natte Kut Natte Aars Chords & Tabs

Nevermind Chords & Tabs

Version: 1 Type: Tab 0 ratings
1 star 2 stars 3 stars 4 stars 5 stars
comments

Natte Kut Natte Aars Tab

This is a nevermind tab, it's a dutch metal coverband.


First the instrumental part..


E-----------------------------
A---1--1--1--1--1-----------------
D---3-----3--3--3--------------
G---3-----3--3--3------------------
B----------------------------------
E----------------------------------

Repeat the upper part 3 times


Then the lyrics join..
[ Tab from: http://www.guitartabs.cc/tabs/n/nevermind/natte_kut_natte_aars_tab.html ]
E-----------------------------
A---1--1--1--1--1-----------------
D---3-----3--3--3--------------
G---3-----3--3--3------------------
B----------------------------------
E----------------------------------

Vinger in je aars.. 

Repeat the upper part 3 times

E-----------------------------
A---3--3--3--3--3-----------------
D---5-----5--5--5--------------
G---5-----5--5--5------------------
B----------------------------------
E----------------------------------

Vinger in je kut..

Then the solo follows.. i'm not sure how it's build up, but it allways seems to end with:

E-----------------------------
A----------------------
D-------------------
G-----------------------
B----------------------------------
E--------------12------------


The End.
Comments