Nevermind - Marry Me Chords & Tabs

 

Marry Me Chords & Tabs

Nevermind Chords & Tabs

Version: 1 Type: Chords 0 ratings
1 star 2 stars 3 stars 4 stars 5 stars
comments

Marry Me Chords

   
*************MARRY ME************

---------------------------------

Music by Marcus Jakob, Philipp Nebel
Lyrics by Marcus Jakob

---------------------------------

Bass-Line

    F#           A
G-||---------------------------|
D-||---------------------------|
A-||---------------------------|
E-||-2-0-2-0-2-0-5-4-5-4-5-4---|

    C#          
G-||---------------------------|
D-||---------------------------|
A-||-4-2-4-2-4-2-4-2-0---------|
E-||-------------------4-2-----|
(play this over the verses)

    A            C#
G-||---------------------------|
D-||---------------------------|
A-||-------------4-2-4-2-4-2---|
E-||-5-4-5-4-5-4---------------|

    A            F#
G-||---------------------------|
D-||---------------------------|
A-||---------------------------|
E-||-5-4-5-4-5-4-2-0-2-0-2-0---|
(play this over the chorus)

VERSE I

F#              A                   C#
  She talks too much, she likes her voice.
F#        A          C#
  I don't hear until she talks about me.
F#        A               C#
  Why she didn't have the choice ?
F         A             C#
  Are you interested in my opinion ?

CHORUS
[ Tab from: http://www.guitartabs.cc/tabs/n/nevermind/marry_me_crd.html ]
A          C#                A     F#
  Show the money straight to me.
A         C#                A      F#
  Show it still, that I can see.
     A      F#
Mary me.
     A      F#
Mary me.
     A      F#
Mary me
     A
Mary me.

VERSE II

F#        A               C#
  First I didn't know her name.
F#                A                  C#
  Don't talk this garbage, it's just shit for me.
F#        A             C#
  For her doings I feel shamed.
F#      A                  C#
  Oh, excuse me, it's just my opinion.

CHORUS

A          C#                A     F#
  Show the money straight to me.
A         C#                A      F#
  Show it still, that I can see.
     A      F#
Mary me.
     A      F#
Mary me.
     A      F#
Mary me
     A
Mary me.

VERSE III

F#              A                   C#
  She talks too much, she likes her voice.
F#        A          C#
  I don't hear until she said something wrong.
F#        A               C#
  Why she didn't take the choice ?
F#         A            C#
  What you hear is just my opinion ?

CHORUS

A          C#                A     F#
  Show the money straight to me.
A         C#                A      F#
  Show it still, that I can see.
     A      F#
Mary me.
     A      F#
Mary me.
     A      F#
Mary me
     A
Mary me.

END

F#  A  C#  C#

F#  A  C#  C#

F#
Comments