Never Stop - New Song Chords & Tabs

 

New Song Chords & Tabs

Never Stop Chords & Tabs

Version: 2 Type: Tab 0 ratings
1 star 2 stars 3 stars 4 stars 5 stars
comments

New Song Tab

Never stop

User: Derek Bliss
Band: Never Stop
Date: august 1, 2002
Rhythm style: rock

Intro x2
[ Tab from: http://www.guitartabs.cc/tabs/n/never_stop/new_song_tab_ver_2.html ]
--------------------------------------------------------------|
--------------------------------------------------------------|
--------------------------------------------------------------|
--------------------55555555-4444-0-2-0-2---------------------|
-55555555-444-00000-------------------------------------------|
--------------------------------------------------------------|
Verse x4
--------------------------------------------------------------|
--------------------------------------------------------------|
-77777777-666------------------x2-----------------------------|
-77777777-666-77777777-55555555-------------------------------|
-55555555-444-77777777-55555555-------------------------------|
--------------55555555-33333333-------------------------------|
Chorus x2
--------------------------------------------------------------|
-x8--x8-------x8--x3------------------------------------------|
-7----9---11-12--11-------------------------------------------|
-7----9---11-12--11--~-~--------------------------------------|
-5----7---9--10--9-------7575---------------------------------|
--------------------------------------------------------------|
Solo x2 (while chords are playing)
---------------------------------------------7-10-------------|
----------------------------------------7-10------------------|
----------------------------7-9-7---7-9-----------------------|
----------------7-9-7---7-9-------9---------------------------|
------------7-9-------9---------------------------------------|
-10-10-7-10---------------------------------------------------|
Bridge x2
--------------------------------------------------------------|
----------5-7-5555555-33333333-5-3-5-3-5-7-5-3----------------|
--7777777-----------------------------------------------------|
--------------------------------------------------------------|
--------------------------------------------------------------|
--------------------------------------------------------------|

chords that play with solo (if you have a back up guitar)

--------------------------------------------------------------|
--------------------------------------------------------------|
-77777777-----------------------------------------------------|
-77777777--77777777-5555555555555555--------------------------|
-55555555--77777777-5555555555555555--------------------------|
-----------55555555-3333333333333333--------------------------|

intro x2
verse x4
intro x2
chorus x2
verse x4
solo x2
bridge x2
verse x2
INTRO x2
Comments