Never Heard Of It - All Hurt Chords & Tabs

 

All Hurt Chords & Tabs

Never Heard Of It Chords & Tabs

Version: 1 Type: Tab 0 ratings
1 star 2 stars 3 stars 4 stars 5 stars
comments

All Hurt Tab

Artist:Never Heard Of It 
song:All Hurt
cd:unknown
tabbed:punkr_182@yahoo.com
       
       intro 4x
       e-------------------------------------------|
       B-------------------------------------------|
       G---5-5---------7-7-7--10-10-10-------------|
       D---5-5--7-7-7--7-7-7--10-10-10-------------|
       A---3-3--7-7-7--5-5-5--8--8--8--------------|
       E--------5-5-5------------------------------|
        2nd part of the intro 2x
       e------------------------------------------------|
       B------------------------------------------------|
       G--5-5-55555-----------7-7-77777~10-10-1010101010|
       D--5-3-33333-7-7-77777-7-7-77777~10-10-1010101010|
       A--3-3-33333-7-7-77777-5-5-55555~8--8--8-8-8-8-8-|
       E------------5-5-55555---------------------------|
         pre-chorus 4x       
       e--------------------------------------------------|
       B--------------------------------------------------|
       G-5-5~101010-------555~777~101010------------------|
       D-5-5~101010-7-7-7~555~777~101010-5xxx5------------|
       A-3-3~8-8-8--7-7-7~333~555~8-8-8--5xxx5------------|
       E------------5-5-5~---------------3xxx3------------|
       chorus: ska up stroke 2x
       e---------------------------------------------------|
       B---------------------------------------------------|
       G--x5x5---------------------------------------------|
       D--x5x5--x7x7--x3x3--x5x5---------------------------|
       A--x3x3--x7x7--x3x3--x5x5---------------------------|
       E--------x5x5--x1x1--x3x3---------------------------|
         2x
       e---------------------------------------------------|
       B---------------------------------------------------|
       G--5------------------------------------------------|
       D--57x--7----3----5---------------------------------| 
       A--3----77x--37x--57x-------------------------------|
       E-------5----1----3---------------------------------|      
         then repeat the pre-chorus and the chorus.                    
       
        Bass:continue w/ guitar solo
       G----------------------------------------------------|
       D----------------------------------------------------|
       A-------5-6-----5-6------5-6--8-6-5------------------|
       E---6-6-----3-3------8-8-----------------------------|

         guitar solo:during the bass part
       e----7b-7-6-4--6~7~9~-11-11-11r-11-9-7-9~11~12-14r-----16-14-12-11-9-7r-4r-2r-0-1-3-|
       B--------------------------------------------------12r------------------------------|
       G-----------------------------------------------------------------------------------|
       D-----------------------------------------------------------------------------------|
       A-----------------------------------------------------------------------------------|
       E-----------------------------------------------------------------------------------|
          pre-chorus then do the chorus and then the pre-chorus again and finish it with the 
          2nd intro and let it ring

[ Tab from: http://www.guitartabs.cc/tabs/n/never_heard_of_it/all_hurt_tab.html ]
Comments