Neve - Its Over Now Chords & Tabs

 

Its Over Now Chords & Tabs

Neve Chords & Tabs

Version: 2 Type: Tab 0 ratings
1 star 2 stars 3 stars 4 stars 5 stars
comments

Its Over Now Tab

   
-------------------------------------------------------------------------------
                       IT'S OVER NOW - Neve 
-------------------------------------------------------------------------------

By:  Gary(TheAtaris07@aol.com)

~ - let ring out
v - vibrato
x
x - scratching
x


GUITAR 1'S PARTS:
-----------------
Intro/1st Verse:  (Strumming pattern not defined)  (3x)
e|-3-----3-----1-----3--------------------------------|
B|-3-----3-----3-----1--------------------------------|
G|-0-----0-----2-----1--------------------------------|
D|-2-----x-----0-----3--------------------------------|
A|-3-----2--------------------------------------------|
E|----------------------------------=-----------------|

Interlude:
e|---------------------------------------------------------------------------|
B|---------------------------------------------------------------------------|
G|5-5-5-5-5-5-5-5-5-5-5-5-5-5-5-5-5-5-5-5-5-5-5-5-5-5-5-5-5-5-5-5-7-7-7-7-7-7|
D|5-5-5-5-5-5-5-5-5-5-5-5-5-5-5-5-5-5-5-5-5-5-5-5-5-5-5-5-5-5-5-5-7-7-7-7-7-7|
A|3-3-3-3-3-3-3-3-3-3-3-3-3-3-3-3-2-2-2-2-2-2-2-2-2-2-2-2-2-2-2-2-5-5-5-5-5-5|
E|---------------------------------------------------------------------------|

Interlude Cont'd:
e|----------------------------------|
B|----------------------------------|
G|7-7-7-7-7-7-7-7-7-7-10--9--5------|
D|7-7-7-7-7-7-7-7-7-7-10--9--5--5---|
A|5-5-5-5-5-5-5-5-5-5--8--7--3--5---|
E|------------------------------3---|

Verse:  "She comes out..."  (2x without octaves at the end)
e|---------------------------------------------------------------------------|
B|---------------------------------------------------------------------------|
G|5-5-x-x-x-5-x-x-5-x-x-x-x-5-5-x-x-x-5-x-x-5-x-x-x-x-7-7-x-x-x-7-x-7-x-x-x-x|
D|5-5-x-x-x-5-x-x-5-x-x-x-x-5-5-x-x-x-5-x-x-5-x-x-x-x-7-7-x-x-x-7-x-7-x-x-x-x|
A|3-3-x-x-x-3-x-x-3-x-x-x-x-2-2-x-x-x-2-x-x-2-x-x-x-x-5-5-x-x-x-5-x-5-x-x-x-x|
E|---------------------------------------------------------------------------|

Verse Cont'd:
e|-----------------------------|
B|-----------------------------|
G|10-10-x-x-x-x-10-12-13-12----|
D|10-10-x-x-x-x--x--x--x--x----|
A|-8--8-x-x-x-x--8-10-11-10----|
E|-----------------------------|

Chorus:  "And you don't ever..."  (2x, but stop when you reach F5 chord)
e|---------------------------------------------------------------------------|
B|---------------------------------------------------------------------------|
G|5-5-5-5-5-5-5-5-5-5-5-5-5-5-5-5-5-5-5-5-5-5-5-5-5-5-5-5-5-5-5-5-7-7-7-7-7-7|
D|5-5-5-5-5-5-5-5-5-5-5-5-5-5-5-5-5-5-5-5-5-5-5-5-5-5-5-5-5-5-5-5-7-7-7-7-7-7|
A|3-3-3-3-3-3-3-3-3-3-3-3-3-3-3-3-2-2-2-2-2-2-2-2-2-2-2-2-2-2-2-2-5-5-5-5-5-5|
E|---------------------------------------------------------------------------|

Chorus Cont'd:
e|-------------------------------------------------------|
B|-------------------------------------------------------|
G|7-7-7-7-7-7-7-7-7-7-(F5)-------------------------------|
D|7-7-7-7-7-7-7-7-7-7-3-3-3-3-3-3-3-3-3-3-3-3-3-3-3-3----|
A|5-5-5-5-5-5-5-5-5-5-3-3-3-3-3-3-3-3-3-3-3-3-3-3-3-3----|
E|--------------------1-1-1-1-1-1-1-1-1-1-1-1-1-1-1-1----|

Repeat Verse

Repeat Chorus

Solo:
e|-----------------------------------------------8---------------------------|
B|---------------------10------------------10~-----11-10h11-8~---------------|
G|5-7-9-7-9~----9--7-------10---7-9-10-9-7----------------------11-10-8h10---|
D|-------------------------------------------------------------------------10|
A|---------------------------------------------------------------------------|
E|---------------------------------------------------------------------------|
[ Tab from: http://www.guitartabs.cc/tabs/n/neve/its_over_now_tab_ver_2.html ]
Solo Cont'd:
e|---13----13----13--13~------17----17----17--20~---20v---|
B|11----11----11-----------15----15----15-----------------|
G|--------------------------------------------------------|
D|--------------------------------------------------------|
A|--------------------------------------------------------|
E|--------------------------------------------------------|

Bridge:  "You won't ever be happier..."
e|-----3-3-3-3-3-3-3-3-3-3-3-3-------0-------------------1-1-1-1-1-1-1-1-1-1-|
B|-----3-3-3-3-3-3-3-3-3-3-3-3-3-3-3---3-3-3-3-3-3-3-3-3-3-3-3-3-3-3-3-3-3-3-|
G|-----0-0-0-0-0-0-0-0-0-0-0-0-0-0-0-----0-0-0-0-0-0-0-0-2-2-2-2-2-2-2-2-2-2-|
D|5-5--------------------------2-2-2-----2-2-2-2-2-2-2-2-0-0-0-0-0-0-0-0-0-0-|
A|5-5--------------------------3-3-3-----3-3-3-3-3-3-3-3---------------------|
E|3-3------------------------------------------------------------------------|

Bridge Cont'd:
e|1-1-1-1-1-1-------------------------------------3-3-3-3-3-3-3-3-3-3-3-3----|
B|3-3-3-3-3-3-3-3-3-3-3-3-3-3-3-3-3-3-3-3-3-3-----3-3-3-3-3-3-3-3-3-3-3-3----|
G|2-2-2-2-2-2-0-0-0-0-0-0-0-0-0-0-0-0-0-0-0-0-----0-0-0-0-0-0-0-0-0-0-0-0----|
D|0-0-0-0-0-0-2-2-2-2-2-2-2-2-2-2-2-2-2-2-2-2-5-5----------------------------|
A|------------3-3-3-3-3-3-3-3-3-3-3-3-3-3-3-3-5-5----------------------------|
E|--------------------------------------------3-3----------------------------|

Bridge Cont'd:
e|------0-------------------1-1-1-1-1-1-1-1-1-1-1-1-1-1-1-1------------------|
B|3-3-3---3-3-3-3-3-3-3-3-3-3-3-3-3-3-3-3-3-3-3-3-3-3-3-3-3------------------|
G|0-0-0-----0-0-0-0-0-0-0-0-2-2-2-2-2-2-2-2-2-2-2-2-2-2-2-2------------------|
D|2-2-2-----2-2-2-2-2-2-2-2-0-0-0-0-0-0-0-0-0-0-0-0-0-0-0-0-5-5-5-5-5-5-5-5-5|
A|3-3-3-----3-3-3-3-3-3-3-3---------------------------------5-5-5-5-5-5-5-5-5|
E|----------------------------------------------------------3-3-3-3-3-3-3-3-3|

Repeat Chorus

Outro:
e|---------------------------------------------------------------------------|
B|---------------------------------------------------------------------------|
G|17---16---14---12----19---17-19-21-19---21---19---17--16---12---14---17~---|
D|-x----x----x----x-----x----x--x--x--x----x----x----x---x----x----x----x----|
A|15---14---12---10----17---15-17-19-17---19---17---15--14---10---12---15~---|
E|---------------------------------------------------------------------------|

GUITAR 2'S PARTS:
-----------------
Intro:  (Only Guitar 1)

Interlude:
e|---------------------------------------------------------------------------|
B|---------------------------------------------------------------------------|
G|5-5-5-5-5-5-5-5-5-5-5-5-5-5-5-5-5-5-5-5-5-5-5-5-5-5-5-5-5-5-5-5-7-7-7-7-7-7|
D|5-5-5-5-5-5-5-5-5-5-5-5-5-5-5-5-5-5-5-5-5-5-5-5-5-5-5-5-5-5-5-5-7-7-7-7-7-7|
A|3-3-3-3-3-3-3-3-3-3-3-3-3-3-3-3-2-2-2-2-2-2-2-2-2-2-2-2-2-2-2-2-5-5-5-5-5-5|
E|---------------------------------------------------------------------------|

Interlude Cont'd:
e|-----------------------------------|
B|-----------------------------------|
G|7-7-7-7-7-7-7-7-7-7-------5--------|
D|7-7-7-7-7-7-7-7-7-7-3--2--5--5-----|
A|5-5-5-5-5-5-5-5-5-5-3--2--3--5-----|
E|--------------------1--0-----3-----|

Verse:  (Played when guitar 1 scratches)
e|-3---|
B|-3---|
G|-0---|
D|-----|
A|-----|
E|-----|

Chorus:  (Play same as guitar 1)

Repeat Verse

Repeat Chorus

Solo:  (Play Chorus chords)

Bridge:  (Same as guitar 1, unless you have a phaser...listen for it)

Repeat Chorus

Outro:  (Play Chorus chords, 2x)

End On:
e|----|
B|----|
G|----|
D|3~--|
A|3~--|
E|1~--|

This song is tight.  E-mail me with any questions, comments, etc.
(TheAtaris07@aol.com).  More tabs on http://www.geocities.com/ggtabs07/
===============================================================================
Comments