Neskimos - Zelda Iii - Hyrule Castle Chords & Tabs

 

Zelda Iii - Hyrule Castle Chords & Tabs

Neskimos Chords & Tabs

Version: 1 Type: Tab 1 rating
1 star 2 stars 3 stars 4 stars 5 stars
comments

Zelda Iii - Hyrule Castle Tab

Zelda III - Hyrule Castle by the NESkimos
Standard Tuning
Tabbed by gmip.

E----------------------------------------
B----------------------------------------
G----------------------------------------
D-5--5--5--5--3--5--7--7--7--7--9--9--5--
A-5--5--5--5--3--5--7--7--7--7--9--9--5-- Huge whammy.
E-3--3--3--3--1--3--5--5--5--5--7--7--3--

E-----------------------------
B-----------------------------
G--------------3-----3--------
D--5-----5--6-----4-----5-----
A-----5--------------------5--
E-----------------------------

E-----------------------------
B-----------------------------
G--------------3-----3--------
D--5-----5--6-----4-----5-----
A-----5--------------------5--
E-----------------------------

E-----------------
B-----------------
G--7-10-10-9-8-7--
D-----------------
A-----------------
E-----------------

E------------------------------
B------------6--4--------------
G---5-----5--------6-----5-----
D------5--------------9-----5--
A------------------------------
E------------------------------

E--3-6-6-5-4-3--
B---------------
G---------------
D---------------
A---------------
E---------------

E-----------------------------
B-----------------------------
G--------------3-----3--------
D--5-----5--6-----4-----5-----
A-----5--------------------5--
E-----------------------------

E-----------------
B-----------------
G--7-10-10-9-8-7--
D-----------------
A-----------------
E-----------------

E-----------------------------
B-----------------------------
G--------------------5--------
D-----------------5-----5-----
A--8--6--5--6--8-----------5--
E-----------------------------

E-----------------------------
B-----------------------------
G--------------------5--------
D-----------------5-----5-----
A--8--6--5--6--8-----------5--
E-----------------------------


E------------------------------------------------------------------------
B------------------------------------------------------------------------
G-----------------------------------------5-----------------5--7--7-7-7--
D-----------------5--8--6--5-----5--6--8-----8--7--5--7--8---------------
A--8--6--5-----8--------------8------------------------------------------
E-----------8------------------------------------------------------------

E-----------------------------------
B-----------------------------------
G-----------7--6-----5--3-----3-----
D--5--7--8--------8--------4-----5--
A-----------------------------------
E-----------------------------------

E-----------------------------------
B-----------------------------------
G-----------7--6-----5--3-----3-----
D--5--7--8--------8--------4-----5--
A-----------------------------------
E-----------------------------------

E----------------------------------------
B----------------------------------------
G-----------7--8--8--8--8----------8--7--
D--------------------------10------------
A--5--7--8---------------------10--------
E----------------------------------------

E---------------------------
B---------------------------
G--5--5--5--5--------5--3/--
D--------------7--3---------
A---------------------------
E---------------------------


E----------------------------
B----------------------------
G--8--8--8--8----------8--7--
D--------------10------------
A------------------10--------
E----------------------------
[ Tab from: http://www.guitartabs.cc/tabs/n/neskimos/zelda_iii_hyrule_castle_tab.html ]
E--------------------------
B--------------------------
G--7--7--7--7--------7--5--
D--------------8--5--------
A--------------------------
E--------------------------

E--------------------------
B--------------------------
G--5--5--5--5--------5--3--
D--------------7--3--------
A--------------------------
E--------------------------

E-----------------------------
B-----------------------------
G--------------3-----3--------
D--5-----5--6-----4-----5-----
A-----5--------------------5--
E-----------------------------

E-----------------------------
B-----------------------------
G--------------3-----3--------
D--5-----5--6-----4-----5-----
A-----5--------------------5--
E-----------------------------

E---------------------
B---------------------
G--7-7-7-10-10-9-8-7--
D---------------------
A---------------------
E---------------------

E------------------------------
B------------6--4--------------
G---5-----5--------6-----5-----
D------5--------------9-----5--
A------------------------------
E------------------------------

E--3-3-3-6-6-5-4-3--
B-------------------
G-------------------
D-------------------
A-------------------
E-------------------

E-----------------------------
B-----------------------------
G--------------3-----3--------
D--5-----5--6-----4-----5-----
A-----5--------------------5--
E-----------------------------

E---------------------
B---------------------
G--7-7-7-10-10-9-8-7--
D---------------------
A---------------------
E---------------------

E-----------------------------
B-----------------------------
G--------------------5--------
D-----------------5-----5-----
A--8--6--5--6--8-----------5--
E-----------------------------

E-----------------------------
B-----------------------------
G--------------------5--------
D-----------------5-----5-----
A--8--6--5--6--8-----------5--
E-----------------------------


E-------------------------------------------------------------------------
B-------------------------------------------------------------------------
G-----------------------------------------5-----------------5--7--7-7-7\--
D-----------------5--8--6--5-----5--6--8-----8--7--5--7--8----------------
A--8--6--5-----8--------------8-------------------------------------------
E-----------8-------------------------------------------------------------

E-----------------------------------
B-----------------------------------
G-----------7--6-----5--3-----3-----
D--5--7--8--------8--------4-----5--
A-----------------------------------
E-----------------------------------

E-----------------------------------
B-----------------------------------
G-----------7--6-----5--3-----3-----
D--5--7--8--------8--------4-----5--
A-----------------------------------
E-----------------------------------

E---------------------------------------------------------
B---------------------------------------------------------
G--8--8-8-8-8--7--7-7-7-7--5--5-5-5-5--3--3-3-3--5--7--8--
D---------------------------------------------------------
A---------------------------------------------------------
E---------------------------------------------------------

E----------------------------------
B----------------------------------
G--8-8-8-8--7-7-7-7-7--5-5-5-5-5p--
D----------------------------------
A----------------------------------
E----------------------------------
Comments