Neskimos - Cantina Of Fear Chords & Tabs

 

Cantina Of Fear Chords & Tabs

Neskimos Chords & Tabs

Version: 1 Type: Bass Tab 1 rating
1 star 2 stars 3 stars 4 stars 5 stars
comments

Cantina Of Fear Bass Tab

Standard tuning.

INTRO

G-----2-----2-----5------5--
D--0-----0-----0-----3------
A---------------------------
E---------------------------

G-----2-----2--------5-----------
D--0-----0-----5--5-----0--2--3--
A--------------------------------
E--------------------------------

G-----2-----2-----------5--3--3\-----------5-----------5--
D--0-----0-----5--5--3------------3--0--5-----3--2--0-----
A---------------------------------------------------------
E---------------------------------------------------------

G-----2-----2-----2-----2-----2-----2-----2-----5/6--
D--0-----0-----0-----0-----0-----0-----0-----5-------
A----------------------------------------------------
E----------------------------------------------------

G-----2-----2-----2-----2--3--3\-----------5-----
D--0-----0-----0-----0------------3--3--5-----3--
A------------------------------------------------
E------------------------------------------------

BRIDGE

G--------------
D--------------
A--8--8--7--6--
E--------------

SECTION 1

G--------------------------------------------------
D--------------------------------------------------
A-----5-----5-----5-----5-----5-----5-----5-----6--
E--5-----5-----5-----5-----5-----5-----5-----5--6--

G--------------------------------------
D--------------------------------------
A--5--5-----5-----5-----5--------3--4--
E--5-----5-----5-----5-----3--3--------
[ Tab from: http://www.guitartabs.cc/tabs/n/neskimos/cantina_of_fear_btab.html ]
G-------------------------------------------------------------------
D-------------------------------------------------------------------
A-----5-----5-----5-----5-----5-----5-----5-----5-------------------
E--5-----5-----5-----5-----5-----5-----5-----5-----5\1/6\1/4\3/8\1--

SECTION 2

G--------------------------------------------------
D--------------------------------------------------
A-----5-----5-----5-----5-----5-----5-----5-----6--
E--5-----5-----5-----5-----5-----5-----5-----5--6--

G--------------------------------------------------
D--------------------------------------------------
A--5--5-----5-----5-----5-----5-----5--------3--4--
E--5-----5-----5-----5-----5-----5-----3--3--------

G-------------------------------------------------------------
D-------------------------------------------------------------
A-----5-----5-----5-----5-----5-----5-----5-------------------
E--5-----5-----5-----5-----5-----5-----5-----5\1/6\1/4\3/8\1--

SECTION 3

G---------------------------------------------------------------
D------------------------------------------------------------8--
A--5-5-5-5-5-5----5-5-5-5-5-5----5-5-5-5-5-5----5-5-5-5-5-5--6--
E--5-5-5-5-5-5----5-5-5-5-5-5----5-5-5-5-5-5----5-5-5-5-5-5-----

G---------------------------------------------------------------
D---------------------------------------------------------------
A--5-5-5-5-5-5----5-5-5-5-5-5----5-5-5-5-5-5----5-5-5-5-10--11--
E--5-5-5-5-5-5----5-5-5-5-5-5----5-5-5-5-5-5----3-3-3-3-8---9---

G-------------------------------------------------------------
D---------------------------------------------------------7\--
A--5-5-5-5-5-5----5-5-5-5-5-5----5-5-5-5-5-5----5-5-5-5-5-----
E--5-5-5-5-5-5----5-5-5-5-5-5----5-5-5-5-5-5----5-5-5-5-5-----

G-----------------
D-----------------
A-----------------
E--1/6\1/4\3/8\1--

SECTION 2

SECTION 1

SECTION 1
Comments