Nesian Mystik - Nesian Style Chords & Tabs

 

Nesian Style Chords & Tabs

Nesian Mystik Chords & Tabs

Version: 3 Type: Tab 0 ratings
1 star 2 stars 3 stars 4 stars 5 stars
comments

Nesian Style Tab

E|--------5----|--------5-----|--------2-----|--------2-----|
B|-----5-------|-----5--------|-----2--------|-----2--------|
G|-------------|--------------|--------------|--------------|
D|--7-------7--|--6---------6-|--4--------4--|--2---------2-|
A|-------------|--------------|--------------|--------------|
E|-------------|--------------|--------------|--------------|
[ Tab from: http://www.guitartabs.cc/tabs/n/nesian_mystik/nesian_style_tab_ver_3.html ]
E|--------2-----|----------0----|--------2------|-----------|
B|-----2--------|-------0-------|-----2---------|---------2-|
G|--------------|---------------|---------------|------2----|
D|--0--------0--|---------------|--0---------0--|--2--------|
A|--------------|---4-----------|---------------|-----------|
E|--------------|---------------|---------------|-----------|

this is played through the whole song
enjoy  
CHOICE!!!!!
Comments