Nesian Mystik - Its On Chords & Tabs

 

Its On Chords & Tabs

Nesian Mystik Chords & Tabs

Version: 1 Type: Tab 0 ratings
1 star 2 stars 3 stars 4 stars 5 stars
comments

Its On Tab

   
-------------------------------------------------------------------------------
			     IT'S ON - Nesian Mystik
-------------------------------------------------------------------------------

http://www.nesian.com
http://www.bouncerecords.com

Tabbed by: J. Stowers
Email: james_stowers@hotmail.com

Tuning:Standard

Intro:

Strum each chord once
[ Tab from: http://www.guitartabs.cc/tabs/n/nesian_mystik/its_on_tab.html ]
       Gm            D#maj7            Cm7         Dm7
e|---------------------6----------------3------------------------------------|
B|-----3---------------8----------------4-----------6------------------------|
G|-----3---------------7----------------3-----------5------------------------|x2
D|-----5---------------8----------------5-----------7------------------------|
A|-----5------------6--6-------------3--3--------5--5------------------------|
E|--3--3---------------------------------------------------------------------|


Verses And Chorus: Strum chords

       Gm            D#maj7            Cm7           Dm7

repeat untill bridge

Bridge: play staccato

        Gm           D#maj7            Cm7           Dm7
e|-------------------6-6-6-------------3-3-3----------5-5-5------------------|
B|------3-3-3--------8-8-8-------------4-4-4----------6-6-6------------------|
G|------3-3-3--------7-7-7-------------3-3-3----------5-5-7------------------|x2
D|------5-5-5--------8-8-8-------------5-5-5----------7-7-7------------------|
A|------5-5-5--------6-6-6-------------3-3-3----------5-5-5------------------|
E|------3-3-3----------------------------------------------------------------|
        . . .        . . .             . . .          . . .

Repeat Chords until End Of Song
Comments