Nesian Mystik - Brothaz Chords & Tabs

 

Brothaz Chords & Tabs

Nesian Mystik Chords & Tabs

Version: 2 Type: Tab 0 ratings
1 star 2 stars 3 stars 4 stars 5 stars
comments

Brothaz Tab

   
-------------------------------------------------------------------------------
			     BROTHAZ - Nesian Mystik
-------------------------------------------------------------------------------

Tabbed by: James Stowers
Email: james_stowers@hotmail.com

Tuning: Standard

Verse:

 |      Em      |      Am      |      G      |      Bm      |

e|------------------------------------3--------------------------------------|
B|-----------------1------------------3----------3--3------------------------|
G|-----0-----------2------------------0----------4--4------------------------|
D|-----2-----------2------------------0----------4--4------------------------|
A|-----2-2-------0---0----------------2--------2-2--2------------------------|
E|---0-----------------------------3--3--3-----------------------------------|


Chorus:

 |   Em7   D#m7  |    Dm7    |   Cmaj7   |   Bm   |   Am  |   G   |   F#   |
[ Tab from: http://www.guitartabs.cc/tabs/n/nesian_mystik/brothaz_tab_ver_2.html ]
e|---------------------------------------------------------------------------|
B|--8-----8--7--------6-----------5----------3---------1---------------------|
G|--7-----7--6--------5-----------4----------4---------2-----4---------3-----|
D|--9-----9--8--------7-----------5----------4---------2-----5---------4-----|
A|--7-----7--6--------5-----------3----------2---------0-----5---------4-----|
E|-----------------------------------------------------------3---------2-----|

Bridge:

 |   Cmaj7   |   D   |   Em7   |   Em7   |

e|----------------------------------10---------------------------------------|
B|---5-----------7--------8---------8----------------------------------------|
G|---4-----------7--------7---------7----------------------------------------|
D|---5-----------7--------9---------9----------------------------------------|
A|---3-----------5--------7---------7----------------------------------------|
E|---------------------------------------------------------------------------|

After bridge go back into chorus 'till end
Comments