Nervewreck - Oh Me Oh My Chords & Tabs

 

Oh Me Oh My Chords & Tabs

Nervewreck Chords & Tabs

Version: 1 Type: Tab

Oh Me Oh My Tab

   
Nervewreck
Oh me, oh my
Rock So Hot
http://www.nervewreck.com/index.htm

Tabbed by: seandabomb

b = bend
/ = slide

Intro/Chorus: (for verse, PM or play softer)
E--2-2-2--2-2--2-2-2-2-2-0-0--0-0--0-0-0-0--0-0-0-0-0-0-0--|
B--3-3-3--3-3--3-3-3-3-3-3-3--3-3--3-3-3-2--2-2-2-2-2-2-2--|
G--2-2-2--2-2--2-2-2-2-2-2-2--2-2--2-2-2-2--2-2-2-2-2-2-2--|
D----------------------------------------------------------|
A----------------------------------------------------------|
E----------------------------------------------------------|

E--2-2-2-2-2-2--2-2-2--2-2-2--2-2--2-2-2-2--2-2-2-2-2-2-2--|
B--3-3-3-3-3-2--2-2-0--0-0-0--3-3--3-3-3-0--0-0-0-0-0-2-2--|
G--4-4-4-4-4-4--4-4-4--4-4-4--4-4--4-4-4-4--4-4-4-4-4-4-4--|
D----------------------------------------------------------|
A----------------------------------------------------------|
E----------------------------------------------------------|

Solo:
E----------------------------------------------------------|
B-------------------------------7~-----------------7~------|
G--7~-6---6~------6-7-6-7-9-7-9------6-7-6-7-9-7-9---------|
D-------7----7~-9------------------9-----------------------|
A----------------------------------------------------------|
E----------------------------------------------------------|
[ Tab from: http://www.guitartabs.cc/tabs/n/nervewreck/oh_me_oh_my_tab.html ]
   |== play each note about 3-4x ==|
E------------------------------------|
B------------------------------------|
G--7-6-----7-6-----7-6-----7-6-------|
D------9-7-----9-7-----9-7-----9-7---|
A------------------------------------|
E------------------------------------|

E---------------------------------|
B------------------7~-7-----------|
G----6-7-6-7-9-7-9------9-7-9-7~--|
D--9------------------------------|
A---------------------------------|
E---------------------------------|

E--5b6b5----------------5b6b5----------------|
B--7b8b7----------------7b8b7----------------|
G--7b8b7-7-7------------7b8b7-7-7------------|
D------------9-9-7-7-9------------9-9-7-7-9--|
A--------------------------------------------|
E--------------------------------------------|

E--------------------------------7-7-9-9-10-10-12-14-14-10-10--|
B------------------7-7-8-8-10-10-------------------------------|
G----------7-7-9-9---------------------------------------------|
D--7-7-9-9-----------------------------------------------------|
A--------------------------------------------------------------|
E--------------------------------------------------------------|

E--10-10---------------10-10----------------|
B--------8-8-7-7-------------8-8-7-7--------|
G----------------7-7-7---------------7-7-7--|
D-------------------------------------------|
A-------------------------------------------|
E-------------------------------------------|

E--10---10---10---10---10/19--------9----------|
B-----8----8----8----8--8/17-------------------|
G----------------------------------------------|
D------------------------------9b11---11-9-8~--|
A----------------------------------------------|
E----------------------------------------------|