Nervewreck - Oh Me Oh My Chords & Tabs

 

Oh Me Oh My Chords & Tabs

Nervewreck Chords & Tabs

Version: 1 Type: Bass Tab

Oh Me Oh My Bass Tab

Nervewreck
Oh me, oh my
Rock So Hot
http://www.nervewreck.com/index.htm

Tabbed by: seandabomb

Bass1:
G------------------------------------------------|
D------------------------------------------------|
A--5-5-5--5-5--5-5-5-5-4-------------------------|
E------------------------5-5-5--5-5--5-5-5-5-3/7-|
[ Tab from: http://www.guitartabs.cc/tabs/n/nervewreck/oh_me_oh_my_btab.html ]
G------------------------------------------------|
D------------------------------------------------|
A---------------------------------------------4--|
E--7-7-7--7-7--7-7-7-7-5--7-7-7--7-7--7-7-7-7----|

Bass2:
G------------------------------------------------|
D------------------------------------------------|
A--5-5-5--5-5--5-5-5-5-4-------------------------|
E------------------------5-5-5--5-5--5-5-5-5-3/7-|

G--------------4---4--------------|
D----------4-7---7---7-4----------|
A----4-5-7---------------7-6-5----|
E--7---------------------------7--|

If you listen to the song, I think it should be pretty easy to figure out whether to 
Bass1 or Bass2 in certain parts.