Nerf Herder - Pervert Chords & Tabs

 

Pervert Chords & Tabs

Nerf Herder Chords & Tabs

Version: 1 Type: Tab 0 ratings
1 star 2 stars 3 stars 4 stars 5 stars
comments

Pervert Tab

Pervert
Nerf Herder

*Intro                
e|--------------------------------
B|--------------------------------
G|--99999999------------------
D|--99999999-55555555----- x2
A|--77777777-55555555-----
E|-----------33333333-----
                                    Then This
e|-----------------------------------------------------------------------
B|----------------------------------------------------------------------
G|--99999999--------------------------------------------------------
D|--99999999-55555555-1010101010101010-77777777-----
A|--77777777-55555555-1010101010101010-77777777-----
E|-----------33333333--8-8-8-8-8-8-8-8-55555555-----

*Verse (palm muted)
e|--------------------------------------------------------------------------------------------
B|--------------------------------------------------------------------------------------------
G|--------------------------------------------------------------------------------------------
D|--55555555-99999999-1010101010101010-55555555-1010101010101010-- 
A|--55555555-99999999-1010101010101010-55555555-1010101010101010--
E|--33333333-77777777--8-8-8-8-8-8-8-8-33333333--8-8-8-8-8-8-8-8---

e-------------------------------------------------------------------
B------------------------------------------------------------------
G------------------------------------------------------------------
D-55555555-1010101010101010-1212121212121212--- x2
A-55555555-1010101010101010-1212121212121212---
E-33333333--8-8-8-8-8-8-8-8-1010101010101010---
[ Tab from: http://www.guitartabs.cc/tabs/n/nerf_herder/pervert_tab.html ]
*Chorus               
e|--------------------------------
B|-------------------------------
G|--99999999-----------------
D|--99999999-55555555---- x2
A|--77777777-55555555----
E|-----------33333333----
                                   Then This
e|----------------------------------------------------------------------
B|---------------------------------------------------------------------
G|--99999999-------------------------------------------------------
D|--99999999-55555555-1010101010101010-77777777----
A|--77777777-55555555-1010101010101010-77777777----
E|-----------33333333--8-8-8-8-8-8-8-8-55555555----

*Verse
*Chorus

The 'on and on' bit                     
e|----------------------------------------------------------------------
B|----------------------------------------------------------------------
G|----------------------------------------------------------------------
D|--55555555-22222222-1010101010101010-77777777----- x2
A|--55555555-22222222-1010101010101010-77777777-----
E|--33333333-00000000--8-8-8-8-8-8-8-8-55555555-----

*Chorus

*Slow Quiet Bit, played like verse, but not so many notes.
Listen to song for timing but its really easy
e|-----------------------------------------------------------------------------------------
B|----------------------------------------------------------------------------------------
G|----------------------------------------------------------------77777777--
D|--5----9---10---5----10---5---10---12----5----9----10---5---10--77777777---
A|--5----9---10---5----10---5---10---12----5----9----10---5---10--55555555---
E|--3----7----8---3----8----3----8---10----3----7----8----3----8------------------

*Chorus - x2

*The 'on and on' bit - Play 4 times instead of 2

End of song
e|---------------
B|--------------
G|--------------
D|--5~----5---
A|--5~----5---
E|--3~----3---

Comments