Nerf Herder - Pantera Fans In Love Chords & Tabs

 

Pantera Fans In Love Chords & Tabs

Nerf Herder Chords & Tabs

Version: 1 Type: Tab 0 ratings
1 star 2 stars 3 stars 4 stars 5 stars
comments

Pantera Fans In Love Tab

Tabbed by Aubrie Schlegel, But verses and most of the intro figured out by Tyler Nixon

It should be all right on, but let me know if you have anything else, punkrock4god@yahoo.com

Intro:
-5-3---5-3---5-3-2-3-2-0-2-------------------| (repeat and end on the 3rd fret)
-----3-----3---------------------------------|
---------------------------------------------|
---------------------------------------------|
---------------------------------------------|
---------------------------------------------|

verses:
---------------------------------------------|
---------------------------------------------|
---------------------------------------------|
---------------------------------------------|
------5--------------------------------------|
------3--------------------------------------| (let it ring)
I bleached my hair just like vince neil, then you made me cut it like james 


---------------------------------------------|
---------------------------------------------|
---------------------------------------------|
---------------------------------------------|
------5--------------------------------------|
------3--------------------------------------| (let it ring)
hetfeild.  We're gonna put an end to alternative rock.  We'll find a way to make
the Cranberry's stop.


--------------------------------------------------------------------------
--------------------------------------------------------------------------
--------------------------------------------------------------------------
----------77777-22222-------55555-------------77777-----------------------
----55555-55555-22222-55555-33333-55555-77777-55555-----------------------
----33333-------00000-33333-------33333-55555-----------------------------
We went to Sears for pictures at Christmas time, but they wouldn't let us make the metal sign


--------------------------------------------------------------------------
--------------------------------------------------------------------------
--------------------------------------------------------------------------
----------77777-22222-------55555-------------77777-----------------------
----55555-55555-22222-55555-33333-55555-77777-55555-----------------------
----33333-------00000-33333-------33333-55555-----------------------------
                            No they wouldn't let us make the metal sign.

Chorus
-------------------|
-------------------|
-------------------|
------55-77--------|   (repeat 3x)
------33-55-55-4-2-|
------------33-2-0-|
I'll bring the wine you bring the bread and cheese, it's hard to eat when you're head banging
Making out in the middle of the pit, how come slayer doesn't sing about this
If anything comes between you and me, then heavy metal heaven that's where we'll meat
[ Tab from: http://www.guitartabs.cc/tabs/n/nerf_herder/pantera_fans_in_love_tab.html ]
-------------------|
-------------------|
-------------------|
--5-7--------------|
--3-5--------------|
-------------------|
We are pantera fans in love

(repeat intro)

repeat verse:
---------------------------------------------|
---------------------------------------------|
---------------------------------------------|
---------------------------------------------|
------5--------------------------------------|
------3--------------------------------------| (let it ring)
what's with these punk rock nerds, they can't even sing, they can't even sing,
I wish we'd never heard of the off

---------------------------------------------|
---------------------------------------------|
---------------------------------------------|
---------------------------------------------|
------5--------------------------------------|
------3--------------------------------------| (let it ring)
spring, a candle lit dinner, now we're holding hands, I taught you how to draw
your first pentagram,

--------------------------------------------------------------------------
--------------------------------------------------------------------------
--------------------------------------------------------------------------
----------77777-22222-------55555-------------77777-----------------------
----55555-55555-22222-55555-33333-55555-77777-55555-----------------------
----33333-------00000-33333-------33333-55555-----------------------------
We went minature golfing but we didn't get far, because we used the clubs to play air guitar

--------------------------------------------------------------------------
--------------------------------------------------------------------------
--------------------------------------------------------------------------
----------77777-22222-------55555-------------77777-----------------------
----55555-55555-22222-55555-33333-55555-77777-55555-----------------------
----33333-------00000-33333-------33333-55555-----------------------------
                            Oh we used the clubs to play air guitar

(Just repeat the chorus)

Play verses without singing, but you sing we are we are pantera fans in fans in love

(repeat intro)


-------------------|
-------------------|
-------------------|
------55-77--------|   (repeat 3x)
------33-55-55-4-2-|
------------33-2-0-|
We saw ozzy on our first date, our special song is crazy train
Makin out in the middle of the pit, how come slayer doesn't sing about this?
If anything comes between you and me, then heavy metal heaven that's where we'll meat

-------------------|
-------------------|
-------------------|
--5-7--------------|   (repeat 3x)
--3-5--------------|
-------------------|
we are, Metallica fans
we are, Megadeath fans
we are, Medalwarp fans 

-------------------|
-------------------|
-------------------|
--5-7--------------|
--3-5-5------------|
------3------------|
in love we are pantera fans in love
Comments