Nerf Herder - New Jersey Girl Chords & Tabs

 

New Jersey Girl Chords & Tabs

Nerf Herder Chords & Tabs

Version: 1 Type: Tab 0 ratings
1 star 2 stars 3 stars 4 stars 5 stars
comments

New Jersey Girl Tab

   
Well, this is my first tab, wanted to play this song, but could find a tab, 
so I sat down and figured it out by ear....it sound spretty good to me,
but feel free to make corrections and whatnot




Intro

E -------------------------------|
G -------------------------------|
B -------------------------------|  
D ---7--6--4--6--2---------------|
A --------------------5--7--4----|
E 5------------------------------|

Play the following chords with Distortion

A-D-E-D

Verse 1 & 2: (no distortion)
[ Tab from: http://www.guitartabs.cc/tabs/n/nerf_herder/new_jersey_girl_tab.html ]
A-D-E-D

Chorus:
(heavy distortion)
A-D-E-D

Verse 3

E -------------------------------|
G -------------------------------|
B -------------------------------|   4X
D ---7--6--4--6--2---------------|
A --------------------5--7--4----|
E -------------------------------|


E ---0-------------------------|
G ---2--2-3---3---3----2----0--|
B ---2-------------------------|
D ---2-------------------------|
A -----------------------------|
E -----------------------------|
       (distortion)
 ...no, but is your sister home?

Chorus to end


Comments