Nerf Herder - Life On Mars Chords & Tabs

 

Life On Mars Chords & Tabs

Nerf Herder Chords & Tabs

Version: 1 Type: Tab 0 ratings
1 star 2 stars 3 stars 4 stars 5 stars
comments

Life On Mars Tab

   
Nerf Herder - Life on Mars
Tabbed By: Daniel Taylor
EMail: danielt88@hotmail.com


E----------------------------------------------------------------------------------
B----------------------------------------------------------------------------------
G---5-5-5-5-5-5-5-5-5-5-5-5-5-5-5-5--5-5-5-5--5-5-5-5-5-5-5-5----------------------
D---5-5-5-5-5-5-5-5-5-5-5-5-5-5-5-5--5-5-5-5--5-5-5-5-5-5-5-5----7-7-7-7-7-7-7-7---
A---3-3-3-3-3-3-3-3-3-3-3-3-3-3-3-3--2-2-2-2--2-2-2-2-2-2-2-2----7-7-7-7-7-7-7-7---
E----------------------------------------------------------------5-5-5-5-5-5-5-5---

E-----------------------
B-----------------------
G-----------------------
D---5-5-5-5-5-5-5-5-----
A---5-5-5-5-5-5-5-5-----
E---3-3-3-3-3-3-3-3-----

Verse palm muted
[ Tab from: http://www.guitartabs.cc/tabs/n/nerf_herder/life_on_mars_tab.html ]
C5                           B5 
I've heard it said it said that outerspace
A5                         F5
is not the kind of place to raise your kids
C5                                   G5
but after my life so far here on earth
F5                       G5
I sure wish my parents did
C5                 E 
I look up to the sky
D5                      C5
and I pray to the heavens
C5           G5  C5              F5             
won't someone come and take me away
C5     G5  C5                F5             
someone come and take me away
C5             G5            C5             F
to the stars, to the moon, just make it soon
E5     G5
oh yeah


C5           E5              D5                          C5
beam me up, strap me down, probe my brain, cure my boredom

There you go.
Comments