Nerf Herder - Jonathan Chords & Tabs

 

Jonathan Chords & Tabs

Nerf Herder Chords & Tabs

Version: 1 Type: Bass Tab 0 ratings
1 star 2 stars 3 stars 4 stars 5 stars
comments

Jonathan Bass Tab

Nerf Herder - Jonathan
Tabbed By: Daniel Taylor
EMail: danielt88@hotmail.com


Standard Tuning

Intro and verses

G------------------------------------------
D------------------------------------------
A------------------------------------------
E---5-5-0--0-0-0-0-0-0---5-5-0--0-0-0-0-0--

Chorus
[ Tab from: http://www.guitartabs.cc/tabs/n/nerf_herder/jonathan_btab.html ]
G-------------------------------------------------------------
D-------------------------------------------------------------
A--2-2-2-2-2-2-2-2-2-2-2-2-2-2--------------------------------
E-------------------------------5-5-5-5-5-5-5-5-5-5-5-5-5-5-5-
   Too sensitive for this world, too sensitive for that girl

G-------------------------------------------------------------
D-------------------------------------------------------------
A--7-7-6-6-4-4-2-2--------------------------------------------
E-------------------5-5-5-5-5---------------------------------
  please God, don't let me.... (not perfect for strums)

Outro

G-------------------------------------------------------------
D-------------------------------------------------------------
A-------------------------------------------------------------
E---5-5-0------5-5-0-----5-5-0------7-7-7-0-------------------
Comments