Nerf Herder - For You Chords & Tabs

 

For You Chords & Tabs

Nerf Herder Chords & Tabs

Version: 1 Type: Bass Tab 0 ratings
1 star 2 stars 3 stars 4 stars 5 stars
comments

For You Bass Tab

Nerf Herder - For You
Tabbed By: Daniel Taylor
EMail: danielt88@hotmail.com


Standard Tuning

Intro

G-----------------------------------------
D-----------------------------------------
A--7-7-7-7-7-7-7-7-7-7-7-7-7-7-7-7-7-7----
E-----------------------------------------

Verses

G-------------------------------------------------------------------
D-------------------------------------------------------------------
A-------------------5-5-5-5-5-5-5-5------------------5-5-5-5-5-5-5--
E--5-5-5-5-5-5-5-5-------------------5-5-5-5-5-5-5-5----------------

G--------------------------------------------------------------------
D--------------------------------------------------------------------
A----------------------------------------------------7-7-7-7-7-7-7-7-
E--5-5-5-5-5-5-5-5--2-2-2-2-2-2-2-2--7-7-7-7-7-7-7-7-----------------

Chorus
[ Tab from: http://www.guitartabs.cc/tabs/n/nerf_herder/for_you_btab.html ]
G-------------------------------------------------------------------
D-------------------------------------------------------------------
A------------------5-5-5-5-5-5-5-5-----------------5-5-5-5-5-5-5-5--
E--5-5-5-5-5-5-5-5-----------------5-5-5-5-5-5-5-5------------------

G---------------------------------------
D---------------------------------------
A---------------------------7-7-7-7-----
E--5-5-5-5-5-5-5-5--7-7-7-7-------------

Pre solo

G---------------------------------------------------------------------
D---------------------------------------------------------------------
A--5-5-5-5-5-5-5-5--------------------5-5-5-5-5-5-5-5-----------------
E-------------------7-7-7-7--5-5-5-5------------------7-7-7-7-5-5-5-5-

G---------------------------------------------------------------------
D---------------------------------------------------------------------
A--5-5-5-5-5-5-5-5--7-7-7-7-7-7-7-7----------------------5-5-5-5-5-5--
E------------------------------------5-5--4-4--2-2--0-0---------------

G--------------------------
D--------------------------
A--5-5--7-7-7-7------------
E----------------5-5-5-5---

Outro

G----------------------
D----------------------
A----------------------
E--10--9--7--0-0--5----
Comments