Nerf Herder - Cashmere Chords & Tabs

 

Cashmere Chords & Tabs

Nerf Herder Chords & Tabs

Version: 1 Type: Tab 0 ratings
1 star 2 stars 3 stars 4 stars 5 stars
comments

Cashmere Tab

	CASHMERE by nerf herder - adapted for 1 guitar


Verse *4
	PM:		
	---------------------------------------------------------------------
	---------------------------------------------------------------------
	------------------9-9-9-9-9-9-9-9--5-5-5-5-5-5-5-5--7-7-7-7--9-9-9-9-
	-7-7-7-7-7-7-7-7--9-9-9-9-9-9-9-9--5-5-5-5-5-5-5-5--7-7-7-7--9-9-9-9-
	-7-7-7-7-7-7-7-7--7-7-7-7-7-7-7-7--3-3-3-3-3-3-3-3--5-5-5-5--7-7-7-7-
	-5-5-5-5-5-5-5-5-----------------------------------------------------


Pre-chorus
	---------------------------------------------------------------------
	---------------------------------------------------------------------
	------------------9~---------------10~-----9~-------7~---------------
	-7~---------------9----------------10------9--------7----------------
	-7----------------7----------------8-------7--------5----------------
	-5---------------------------------8-------7--------5----------------


	---------------------------------------------------------------------------------------
	---------------------------------------------------------------------------------------
	------------------9~---------------10~-----9~-------7~-----------------7-7-7-7-7-7-7-7-
	-7~---------------9----------------10------9--------7------------------7-7-7-7-7-7-7-7-
	-7----------------7----------------8-------7--------5------------------5-5-5-5-5-5-5-5-
	-5---------------------------------8-------7--------5------------------5-5-5-5-5-5-5-5-


Chorus
	---------------------------------------------------------------------
	---------------------------------------------------------------------
	------------------9-9-9-9-9-9-9-9--5-5-5-5-5-5-5-5--7-7-7-7--9-9-9-9-
	-7-7--------------9-9-9-9-9-9-9-9--5-5-5-5-5-5-5-5--7-7-7-7--9-9-9-9-
	-7-7--------------7-7-7-7-7-7-7-7--3-3-3-3-3-3-3-3--5-5-5-5--7-7-7-7-
	-5-5-----------------------------------------------------------------

		
	--------------------------------------------------------------------------------------------------------
	--------------------------------------------------------------------------------------------------------
	------------------9-9-9-9-9-9-9-9--5-5-5-5-5-5-5-5--7-7-7-7--9-9-9-9-------------------9~---------------
	-7-7-7-7-7-7-7-7--9-9-9-9-9-9-9-9--5-5-5-5-5-5-5-5--7-7-7-7--9-9-9-9--7~---------------9----------------
	-7-7-7-7-7-7-7-7--7-7-7-7-7-7-7-7--3-3-3-3-3-3-3-3--5-5-5-5--7-7-7-7--7----------------7----------------
	-5-5-5-5-5-5-5-5------------------------------------------------------5---------------------------------


Verse *2
	PM:		
	---------------------------------------------------------------------
	---------------------------------------------------------------------
	------------------9-9-9-9-9-9-9-9--5-5-5-5-5-5-5-5--7-7-7-7--9-9-9-9-
	-7-7-7-7-7-7-7-7--9-9-9-9-9-9-9-9--5-5-5-5-5-5-5-5--7-7-7-7--9-9-9-9-
	-7-7-7-7-7-7-7-7--7-7-7-7-7-7-7-7--3-3-3-3-3-3-3-3--5-5-5-5--7-7-7-7-
	-5-5-5-5-5-5-5-5-----------------------------------------------------


Pre-chorus
	---------------------------------------------------------------------
	---------------------------------------------------------------------
	------------------9~---------------10~-----9~-------7~---------------
	-7~---------------9----------------10------9--------7----------------
	-7----------------7----------------8-------7--------5----------------
	-5---------------------------------8-------7--------5----------------

[ Tab from: http://www.guitartabs.cc/tabs/n/nerf_herder/cashmere_tab.html ]
	---------------------------------------------------------------------------------------
	---------------------------------------------------------------------------------------
	------------------9~---------------10~-----9~-------7~-----------------7-7-7-7-7-7-7-7-
	-7~---------------9----------------10------9--------7------------------7-7-7-7-7-7-7-7-
	-7----------------7----------------8-------7--------5------------------5-5-5-5-5-5-5-5-
	-5---------------------------------8-------7--------5------------------5-5-5-5-5-5-5-5-


Chorus
	---------------------------------------------------------------------
	---------------------------------------------------------------------
	------------------9-9-9-9-9-9-9-9--5-5-5-5-5-5-5-5--7-7-7-7--9-9-9-9-
	-7-7--------------9-9-9-9-9-9-9-9--5-5-5-5-5-5-5-5--7-7-7-7--9-9-9-9-
	-7-7--------------7-7-7-7-7-7-7-7--3-3-3-3-3-3-3-3--5-5-5-5--7-7-7-7-
	-5-5-----------------------------------------------------------------

		
	----------------------------------------------------------------------
	----------------------------------------------------------------------
	------------------9-9-9-9-9-9-9-9--5-5-5-5-5-5-5-5--7-7-7-7--9-9-9-9--
	-7-7-7-7-7-7-7-7--9-9-9-9-9-9-9-9--5-5-5-5-5-5-5-5--7-7-7-7--9-9-9-9--
	-7-7-7-7-7-7-7-7--7-7-7-7-7-7-7-7--3-3-3-3-3-3-3-3--5-5-5-5--7-7-7-7--
	-5-5-5-5-5-5-5-5------------------------------------------------------


Solo
	---------------------------------------------------------------------
	---------------------------------------------------------------------
	-----5-4-5-2~-----4-3-4-3----------5-4-5-2~-7~------5~--4~-----------
	-7-7----------------------4~-----------------------------------------
	-7-7-----------------------------------------------------------------
	-5-5-----------------------------------------------------------------
							
						        
	---------------------------------------------------------------------
	---------------------------------------------------------------------
	-----5-4-5-2~-----4-3-4-3----------5-4-5-2~-7~-/2~--5~-/4~-----------
	--------------------------4~-----------------------------------------
	---------------------------------------------------------------------
	---------------------------------------------------------------------


Outro
	PM:		
	---------------------------------------------------------------------
	---------------------------------------------------------------------
	-----------------------------------5-5-5-5-5-5-5-5--7-7-7-7--9-9-9-9-
	-7-7-7-7-7-7-7-7--7-7-7-7-7-7-7-7--5-5-5-5-5-5-5-5--7-7-7-7--9-9-9-9-
	-7-7-7-7-7-7-7-7--7-7-7-7-7-7-7-7--3-3-3-3-3-3-3-3--5-5-5-5--7-7-7-7-
	-5-5-5-5-5-5-5-5--4-4-4-4-4-4-4-4------------------------------------

	PM:						         end PM
	---------------------------------------------------------------------
	---------------------------------------------------------------------
	-----------------------------------5-5-5-5-5-5-5-5--7-7-7-7--9-9-9-9-
	-7-7-7-7-7-7-7-7--7-7-7-7-7-7-7-7--5-5-5-5-5-5-5-5--7-7-7-7--9-9-9-9-
	-7-7-7-7-7-7-7-7--7-7-7-7-7-7-7-7--3-3-3-3-3-3-3-3--5-5-5-5--7-7-7-7-
	-5-5-5-5-5-5-5-5--4-4-4-4-4-4-4-4------------------------------------

			
	---------------------------------------------------------------------
	---------------------------------------------------------------------
	------------------9-9-9-9-9-9-9-9--5-5-5-5-5-5-5-5--7-7-7-7--9-9-9-9-
	-7-7-7-7-7-7-7-7--9-9-9-9-9-9-9-9--5-5-5-5-5-5-5-5--7-7-7-7--9-9-9-9-
	-7-7-7-7-7-7-7-7--7-7-7-7-7-7-7-7--3-3-3-3-3-3-3-3--5-5-5-5--7-7-7-7-
	-5-5-5-5-5-5-5-5-----------------------------------------------------


	---------------------------------------------------------------------
	---------------------------------------------------------------------
	------------------9-9-9-9-9-9-9-9--5-5-5-5-5-5-5-5--7-7-7-7--9-9-9-9-
	-7-7-7-7-7-7-7-7--9-9-9-9-9-9-9-9--5-5-5-5-5-5-5-5--7-7-7-7--9-9-9-9-
	-7-7-7-7-7-7-7-7--7-7-7-7-7-7-7-7--3-3-3-3-3-3-3-3--5-5-5-5--7-7-7-7-
	-5-5-5-5-5-5-5-5-----------------------------------------------------

	















Comments