Nerf Herder - Buffy Theme Chords & Tabs

 

Buffy Theme Chords & Tabs

Nerf Herder Chords & Tabs

Version: 1 Type: Tab 1 rating
1 star 2 stars 3 stars 4 stars 5 stars
comments

Buffy Theme Tab

NERF HERDER- THE BUFFY THEME TUNE

This sounds perfect, i peiced it together from other tabs and worked out 
some myself. Standard tuning.
Use up down strokes for most of the chord stuff, listen though, 'cos there are some bits you don't.  

INTRO
e|----------------|----------------|----------------|
B|----------------|----------------|----------------|
G|----------------|----------------|----------------|
D|----------------|----------------|----------------|
A|----------------|----------------|---------->>>>>>|
E|5-------7-8-3---|----33------5-7-|3--------->>>>>>|

INTRO PART 2
e|----------------|----------------|----------------|----------------|----------------|
B|----------------|----------------|----------------|----------------|----------------|
G|----------------|----------------|----------------|----------------|----------------|
D|7-7-7-7-7-7-7-7-|7-7-7-7-9---10--|5-5-5-5-5-5-5-5-|5-5-5-5-5-5-5-5-|5-5-5-5-5-5-5-5-|
A|7-7-7-7-7-7-7-7-|7-7-7-7-9---10--|5-5-5-5-5-5-5-5-|5-5-5-5-5-5-5-5-|5-5-5-5-5-5-5-5-|
E|5-5-5-5-5-5-5-5-|5-5-5-5-7---8---|3-3-3-3-3-3-3-3-|3-3-3-3-3-3-3-3-|3-3-3-3-3-3-3-3-|
 
                          
e|----------------|----------------|
B|----------------|----------------|
G|----------------|----------------|
D|7---9---5-5-5-5-|5-5-5-5-5-5-5-5-|
A|7---9---5-5-5-5-|5-5-5-5-5-5-5-5-|
E|5---7---3-3-3-3-|3-3-3-3-3-3-3-3-|
[ Tab from: http://www.guitartabs.cc/tabs/n/nerf_herder/buffy_theme_tab.html ]
BRIDGE
e|----------------|----------------|
B|----------------|----------------|
G|----------------|----------------|
D|----------------|----------------|
A|--5-----7-5//3--|3/2---2->>>>>>>>|
E|----------------|-------->>>>>>>>|

SOLO
e|----------------|----------------|----------------|----------------|
B|----------------|----------------|----------------|----------------|
G|5-5-5-5-5-5-5-5-|5-5-5-5-8---10--|5-5-5-5-5-5-5-5-|5-5-5-5-8---10--|
D|----------------|----------------|----------------|----------------|
A|----------------|----------------|----------------|----------------|
E|----------------|----------------|----------------|----------------|

e|----------------|----------------|----------------|----------------|
B|----------------|----------------|----------------|----------------|
G|3-3-3-3-3-3-3-3-|3-3-3-3-5---6---|3-3-3-3-3-3-3-3-|3-3-3-3-3-3-3-3-|
D|----------------|----------------|----------------|----------------|
A|----------------|----------------|----------------|----------------|
E|----------------|----------------|----------------|----------------|

e|----------------|----------------|
B|----------------|----------------|
G|4-4-4-4-4-4-4-4-|4-4-4-4-4-4-4-4-|
D|----------------|----------------|
A|----------------|----------------|
E|----------------|----------------|

OUTRO 
e|----------------|----------------|
B|----------------|----------------|
G|--------7---9---|----------------|
D|--------7---9---|--------3-------|
A|>>>>>>>-5---7---|>>>>>>>-3-------|
E|>>>>>>>---------|>>>>>>>-1-------|
Comments