Nerf Herder - Buffy The Vampire Slayer Chords & Tabs

 

Buffy The Vampire Slayer Chords & Tabs

Nerf Herder Chords & Tabs

Version: 1 Type: Bass Tab 0 ratings
1 star 2 stars 3 stars 4 stars 5 stars
comments

Buffy The Vampire Slayer Bass Tab

   
BUFFY THEME
BY Nerf Herder
tabed:alan mcintyre
EMAIL:ozzyismadsayi@?hotmail.com

this is quite a fast song
but the bass line is pretty stedy.

riff 1 2X

G|---------------------------------------------------------
D|---------------------------------------------------------
A|7-7-7-7-7-7-7-7--9-9-9-9-9-9-9-9--14-14-14-14-14-14-14-14 >
E|---------------------------------------------------------

RIFF 1 CONTINUED
[ Tab from: http://www.guitartabs.cc/tabs/n/nerf_herder/buffy_the_vampire_slayer_btab.html ]
G|-------------------------
D|-------------------------
A|-17-17-17-17-17-17-17-17-
E|-------------------------


RIFF 2 1X

G|---------------5------------------
D|-----------5H7---7-5-------5------
A|-7-7-7-7-7-----------5-5H7---7-5--
E|---------------------------------7

RIFF 1 1X

RIFF 3

G|------------
D|---2--------
A|-------2----
E|----------0R

KEY

H=HAMMER SLOWLY
R=LET RING (TILL SONG ENDS)
THATS IT
Comments