Nerf Herder - 5000 Ways To Die Chords & Tabs

 

5000 Ways To Die Chords & Tabs

Nerf Herder Chords & Tabs

Version: 1 Type: Bass Tab 0 ratings
1 star 2 stars 3 stars 4 stars 5 stars
comments

5000 Ways To Die Bass Tab

Nerf Herder - 5000 Ways to Die
Tabbed By: Daniel Taylor
EMail: danielt88@hotmail.comIntro (no guitar or bass)

Verses

G-------------------------------------------------------
D-------------------------------------------------------
A--5-5-5-5-5-x-------------x-x-2-2-2-2-2-x-x------------
E---------------5-5-5-5-5--------------------3-3-3-3-3--

Chorus
[ Tab from: http://www.guitartabs.cc/tabs/n/nerf_herder/5000_ways_to_die_btab.html ]
G--------------------------------------------------
D--------------------------------------------------
A--2-2-2-2-2-------------5-5-5-5-5-----------------
E-------------3-3-3-3-3------------5-5-5-5-5-------

G--------------------------------------------------
D--------------------------------------------------
A--2-2-2-2-2-------------5-5-5-5-5-----------------
E-------------3-3-3-3-3------------5-5-5-5-5-------

G--------------------------------------------------
D--------------------------------------------------
A--------------------------------------------------
E---2-----------3--------------5-5-5-5-5-5-5-------
Have you ever tried?...
Comments