Nerd - She Wants To Move Chords & Tabs

 

She Wants To Move Chords & Tabs

Nerd Chords & Tabs

Version: 2 Type: Tab 0 ratings
1 star 2 stars 3 stars 4 stars 5 stars
comments

She Wants To Move Tab

   
N.E.R.D.
"She Wants To Move"
Fly or Die
tabbed by 3N

VERSE
E-------------------------------------------------------
B-------------------------------------------------------
G-------------------------------------------------------
D-2--2--3-3-3---2--2--3-3-3---2--2--3-3-3---5--5--7-7-7-
A-2--2--3-3-3---2--2--3-3-3---2--2--3-3-3---5--5--7-7-7-
E-0--0--1-1-1---0--0--1-1-1---0--0--1-1-1---3--3--5-5-5-

after piano [distortion]:
E--17^(18)----17^(18)----17^(18)----17^(18)-16-
B---------16---------16---------16-------------
G----------------------------------------------
D----------------------------------------------
A----------------------------------------------
E----------------------------------------------
[ Tab from: http://www.guitartabs.cc/tabs/n/nerd/she_wants_to_move_tab_ver_2.html ]
CHORUS [distortion]
E--7---7---77--7-----7---7---77--7-----7---7---77--7-----7---7---77--78-
B----8---8----8-8------8---8----8-8------8---8----8-8------8---8----8---
G-----------------------------------------------------------------------
D-----------------------------------------------------------------------
A-----------------------------------------------------------------------
E-----------------------------------------------------------------------

SOLO 
E------------------------3h4-/8-----8/9\8-4--4/6---4-3------
B-/4-------4-2-1-1/2-----------------------------------5--1-
G-----------------------------------------------------------
D-----------------------------------------------------------
A-----------------------------------------------------------
E-----------------------------------------------------------
Comments