Nerd - Provider Chords & Tabs

 

Provider Chords & Tabs

Nerd Chords & Tabs

Version: 1 Type: Bass Tab 0 ratings
1 star 2 stars 3 stars 4 stars 5 stars
comments

Provider Bass Tab

Song: Provider
Band: N.E.R.D.
By  : James Pucyk (pucyk_james@hotmail.com)

This is pretty much it. It's pretty straight forward, if you
got the rhythm you got the song pretty much.

Intro
   And Cash....   
G|--------|-------|---|-------------|
D|-2-5-7--|-5/7---|-3-|-------------|
A|--------|-----5-|---|--------3--3-|
E|--------|-------|(1)|-3-5---5--5--|
(you can play the F note lower depending on the sound and EQ
of your bass setup)
[ Tab from: http://www.guitartabs.cc/tabs/n/nerd/provider_btab.html ]
Main Bassline (Verses and Choruses)
G|--------------|---------------|---------------|-------------|
D|--------------|---------------|---------------|-------------|
A|------------3-|-5-5-55-55-53--|-----------53--|--------3--3-|
E|-5-5-55-55-5--|-------------5-|-1-1-11-11---5-|-5-5-5-5--5--|

Bridge (Funky Drum and Bass Part)
   Someday...  over..       Family...   Voter...    Die...
G|-----------|------------|-----------|-----------|-----------|
D|-----------|------------|-----------|-----------|-----------|
A|-5-55-5-55-|------------|-----------|-5-55-5-55-|-5-55-5-55-|
E|-----------|-3-33-3-33-5|-6-66-6-66-|-----------|-----------|
                         A--Leadnote to next chord

   Change...    Family...
G|------------|-----------|---|
D|------------|-----------|---|
A|------------|-----------|---|
E|-3-33-3-33-5|-6-66-6-66-|-3-|

Intro (Bass Tacit for first repition)
Verse
Chorus
Re-Introduction (Bass Tacit One repition)
Verse
Chorus
Bridge
Verse
Chorus
Bridge



FIN
Comments