Nerd - Maybe Chords & Tabs

 

Maybe Chords & Tabs

Nerd Chords & Tabs

Version: 1 Type: Tab 0 ratings
1 star 2 stars 3 stars 4 stars 5 stars
comments

Maybe Tab

Artist - N.E.R.D
Song - Maybe
Album - Fly or Die

by David McGregor 2004

Main Riff
------------------------------------------
--------8---10^--10--8--10--10^--8--10-8--
---7--9---9-------------------------------
------------------------------------------
------------------------------------------
------------------------------------------
[ Tab from: http://www.guitartabs.cc/tabs/n/nerd/maybe_tab.html ]
Chorus
------------------------------------------
------------------------------------------
---5--4-----------------------------------
---5--4--7--6--7--------------------------
---3--2--7--6--7--------------------------
---------5--4--5--------------------------

Interlude
------------------------------------------
---------5----7^--7--5--7--5--------------
---4--6----6------------------6-----------
------------------------------------------
------------------------------------------
------------------------------------------
Comments