Nerd - Dont Worry About It Chords & Tabs

 

Dont Worry About It Chords & Tabs

Nerd Chords & Tabs

Version: 2 Type: Tab 0 ratings
1 star 2 stars 3 stars 4 stars 5 stars
comments

Dont Worry About It Tab

   
Tabbed by: Tom Paice
Email:

Tuning: Normal
Main Part throughout the song F#m

e|-2----2-2---2-2-|
B|-2----2-2---2-2-|
G|-2----2-2---2-2-|
D|-4----4-4---4-4-|
A|-4----4-4---4-4-|
E|-2----2-2---2-2-|

little background bit
[ Tab from: http://www.guitartabs.cc/tabs/n/nerd/dont_worry_about_it_tab_ver_2.html ]
e|-0-0-1-1-2-|
B|-----------|
G|-----------|
D|-----------|
A|-----------|
E|-----------|

other guitar bit later on

e|--------------------------------|
B|-13-12-10----5-7-5-7------------|
G|--------------------------------|
D|--------------------------------|
A|--------------------------------|
E|--------------------------------|

listen to song to crack the hot n*e*r*d sound
adios
Comments