Nephew - Movieklip Chords & Tabs

 

Movieklip Chords & Tabs

Nephew Chords & Tabs

Version: 2 Type: Tab 0 ratings
1 star 2 stars 3 stars 4 stars 5 stars
comments

Movieklip Tab

   
                                 Nephew
                               Movieklip

                           tabbed by Lean H H

Hej.. (I speak danish, cause I don't think anyone else than danish people read this)..
Jeg vil først gå over introen (den der spilles på klaver), og derefter akorderne og
riff'et.. men først en akordforklaring.. Here you go:

Am    x02210
Am/c  x32210
Em    022000
Em/G  322000
F     133211
Dm    xx0231
G     355433
E     022100
C     x32010

Intro:

e|--------------------------------------------------------------------------|
H|--------------------------------------------------------------------------|
G|------------------------------------------0-0--------------0-0-------0-2--|
D|-----------------------------------0-2---------4-4--0-2---------4-4-------|
A|---0----3-3--2-2----0----3-3--2-2-----------------------------------------|
E|-3----------------3-------------------------------------------------------|

e|-----------------------------------|
H|----------------0-----0------------|
G|-0-2---0-2----2-----2--------------|
D|-----------------------------------|
A|-----------------------------0-----|
E|---------------------------3-------|

Vers 1

Am                    Am/c  Am
Så klapper I i takt
                      Am/c  Am
jeg si'r til mig selv
        Am/c Am          Am/c
godt nok - og lykke og held
Em        Em/G Em     Em/G Em   Em/G Em
tonight - all right - I might - just fight
                        F     Dm
så klapper jeg en knægt
                      Am     Am/c Am
så klapper det perfekt
        Am/c    G        E
and here we go

Riff:

e|-------------------------------------------------------------------------|
H|-------------------------------------------------------------------------|
G|------------------------------------------0-0--------------0-0-----------|
D|-----------------------------------0-2---------4-4--0-2---------4-4------|
A|---0----3-3--2-2----0----3-3--2-2--------------------------------------0-|
E|-3----------------3--------------------------------------------------3---|


vers 2
[ Tab from: http://www.guitartabs.cc/tabs/n/nephew/movieklip_tab_ver_2.html ]
Am                  Am/c  Am
Så ta'r I til Paris
                    Am/c  Am
jeg si'r til mig selv
      Am/c  Am            Am/c
oh god, mon det er farvel?
Em      Em/G Em       Em/G Em       Em/G Em
oh god - I hope not - don't start - I'm hot
                         F        Dm
så ta'r jeg ind på Shell
                             Am    Am/c  Am
for så gi'r det jo sig selv
          Am/c   G        E
and round we go


Bridge:

Dm
Jeg ser et movie klip

og tror at du vil slip'
F                        G
andre ind på dig - ah ah
                         Dm
jeg hvisker - ah ah

Chorus:

Dm          F
Ah ah ah ah
G           Dm
Ah ah ah ah
            F
Ah ah ah ah
G           Am
Ah ah ah ah
            C
Ah ah ah ah
F           Am
Ah ah ah ah
            C     F     Am
Ah ah ah ah

Riff

Vers 3:

Am                Am/c  Am
Så ryger I tobak
                     Am/c  Am
jeg si'r til mig selv
       Am/c  Am                       Am/c
fuck det, jeg har det godt nok og vel
Em    Em/G Em    Em/G Em   Em/G Em
igen - så læng' - I sing - this song
                   F       Dm
så ryger jeg i bund
                          Am    Am/c  Am
for du er både sød og ond
      Am/c    G        E
I love to long

Bridge

Chorus

solostykke (kunne jeg ikke finde ud af)

riff 2:

e|----------------------------------|
H|----------------------------------|
G|----------------------------------|
D|-3-3--2-2--0------0-0-------------|
A|-------------3---------3-3--2-0---|
E|----------------------------------|

Dette gentages tre gange og så:

e|------------------------------------|
H|------------------------------------|
G|------------------------------------|
D|-0-0--------------0-0---------------|
A|------3-3--2-0---------3-3--2-0~~~~-|
E|------------------------------------|

Slut!
Comments