Nephew - En Wannabe Darth Vader Chords & Tabs

 

En Wannabe Darth Vader Chords & Tabs

Nephew Chords & Tabs

Version: 1 Type: Bass Tab 0 ratings
1 star 2 stars 3 stars 4 stars 5 stars
comments

En Wannabe Darth Vader Bass Tab

   
    Intro: Silent x2, A1 x2
    Verse: A2 x2, A1 x2
   Chorus: B x1
Pre-verse: A1 x1
    Verse: A2 x2, A1 x2
   Chorus: B x1
Pre-verse: Do something slidy
    Verse: Silent x4 
   Chorus: B x1
    Outro: C x4, Break till end


A1:

G|-----------------|-----------------|-----------------|-----------------||
D|-----------------|---1---1---1-3-1-|-3---3---3-3-3-1-|-*-3-3-1-*-3-3---||
A|-3---3---3-1-3-1-|-----------------|-----------------|-----------------||
E|-----------------|-----------------|-----------------|-----------------||

A2:
Timing at the slide down-parts are crucial. Listen carefully to get it right.

G|-----------------|-----------------|-----------------|-----------------||
D|-----------------|-1-1-------------|-3-3\------------|-6-6-----5-5-----||
A|-3-3\------------|-----------------|-----------------|-----------------||
E|-----------------|-----------------|-----------------|-----------------||

G|-----------------|-----------------|-----------------|-----------------||
D|-----------------|-1-1-------------|-3-3\------------|-6-6-----8-8-----||
A|-3-3\------------|-----------------|-----------------|-----------------||
E|-----------------|-----------------|-----------------|-----------------||

B:
[ Tab from: http://www.guitartabs.cc/tabs/n/nephew/en_wannabe_darth_vader_btab.html ]
G|-----------------|-----------------|-----------------|-----------------||
D|-----------------|-----------------|-----------------|-----------------||
A|-----------------|-----------------|-3-3-3-3-3-3-3-3-|-3-3-3-3-3-3-3-3-||
E|-4-4-4-4-4-4-4-4-|-4-4-4-4-4-4-4-4-|-----------------|-----------------||

G|-----------------|-----------------|-----------------|-----------------||
D|-----------------|-----------------|-----------------|-----------------||
A|-----------------|-----------------|-3-3-3-3-3-3-3-3-|-3-3-3-3-3-3-3-3-||
E|-4-4-4-4-4-4-4-4-|-4-4-4-4-4-4-4-4-|-----------------|-----------------||

G|-----------------|-----------------|-----------------|-----------------||
D|-----------------|-----------------|-----------------|-----------------||
A|-----------------|-----------------|-3-3-3-3-3-3-3-3-|-3-3-3-3-3-3-3-3-||
E|-4-4-4-4-4-4-4-4-|-1-1-1-1-1-1-1-1-|-----------------|-----------------||

G|-----------------|-----------------|-----------------|-----------------||
D|-----------------|-----------------|-----------------|-----------------||
A|-----------------|-----------------|-----------------|-1-1-1-1-1-1-1-1-||
E|-4-4-4-4-4-4-4-4-|-1-1-1-1-1-1-1-1-|-4-4-4-4-4-4-4-4-|-----------------||

C (outro):
This is the only bit I'm unsure about. It sounds right, but I couldn't 
find the last note.

G|-----------------|-----------------|-----------------|-----------------||
D|-----------------|-3-3-3-3-3-3-3-3-|-6-6-6-6-6-6-6-6-|-8-8-8-8-8-8-8-8-||
A|-3-3-3-3-3-3-3-3-|-----------------|-----------------|-----------------||
E|-----------------|-----------------|-----------------|-----------------||

Thats it. Hope you enjoy it.
Comments