Nephew - Bazooka Chords & Tabs

 

Bazooka Chords & Tabs

Nephew Chords & Tabs

Version: 1 Type: Tab 0 ratings
1 star 2 stars 3 stars 4 stars 5 stars
comments

Bazooka Tab

Band: Nephew
Song: Bazooka
Tabbed by: Søren Lützow

I love the intro to "Bazooka", therefore I tabbed it, and here it is, my first tab.
It's really easy, as it may seem.

Play it with distortion, and perhaps a bit of reverb.


e-----------------------------------------------------------------|
h-15-----15-15-15-15^16^15------------------18^15-----------------|
g--------------------------15---14-14-14-15-----------------------|
d-----------------------------------------------------------------|
a-----------------------------------------------------------------|
e-----------------------------------------------------------------|
[ Tab from: http://www.guitartabs.cc/tabs/n/nephew/bazooka_tab.html ]
e-----------------------------------------------------------------|
h-15--15-15-15-15^16^15-------------------------------------------|
g-----------------------15---14-14-14-15-14-12-0------------------|
d-----------------------------------------------------------------|
a-----------------------------------------------------------------|
e-----------------------------------------------------------------|

e-----------------------------------------------------------------|
h-15-15-15-15-15^16^15------------------18^15---------------------|
g----------------------15---14-14-14-15---------------------------|
d-----------------------------------------------------------------|
a-----------------------------------------------------------------|
e-----------------------------------------------------------------|


e-----------------------------------------------------------------|
h-15--15-15-15-15^16^15-------------------------------------------|
g-----------------------15---14-14-14-15-14-12-0------------------|
d-----------------------------------------------------------------|
a-----------------------------------------------------------------|
e-----------------------------------------------------------------|

Enjoy!

Til jer danskere der læser det her: I skal ikke tage jer af hvis der er
nogle steder hvor der går lidt hurtigere med at skifte, end jeg har formået
at angive med bindestreger, bare lyt til sangen, så er i ikke i tvivl...:)
Comments