Neon - A Man Chords & Tabs

 

A Man Chords & Tabs

Neon Chords & Tabs

Version: 1 Type: Tab 0 ratings
1 star 2 stars 3 stars 4 stars 5 stars
comments

A Man Tab

   
Australian band from Melbourne, Neon, have just recently released their self-titled debut
album. They have a pretty cool rock sound, maybe the new 'jet'? checkout their site
www.neontheband.com. This is their song, a man, first track of the album.


no intro

verse 1
e---------------------------|
B---------------------------|
G---------------------------| x 8
D-6-5-----------8-8-8-8-8-8-|
A-------8-6-8---8-8-8-8-8-8-|
E---------------6-6-6-6-6-6-|

chorus                                      after chorus
e-----------------------------|              e---------|
B-----------------------------|              B---------|
G---------8-8-8-8-------------| x 4          G---------|
D-6-6-6-6-8-8-8-8-8-8-8-8-8-8-|              D-6-5-8-8-|
A-6-6-6-6-6-6-6-6-8-8-8-8-8-8-|              A-6-5-8-8-|
E-4-4-4-4---------6-6-6-6-6-6-|              E-4-3-6-6-|

verse 2
e---------------------------|
B---------------------------|
G---------------------------|  x 3                 
D-6-5----8-8----8-8-8-8-8-8-|
A-------8-------8-8-8-8-8-8-|
E---------------6-6-6-6-6-6-|

chorus 
[ Tab from: http://www.guitartabs.cc/tabs/n/neon/a_man_tab.html ]
bridge 
e-----------------------------------|
B-----------------------------------|
G-8-7---------7-8-7-----------7-----|
D------8-6-8----------8-6-8-----8-8-|
A-----------------------------------|
E-----------------------------------|

bridge cont.
e----------------------------------------|
B----------------------------------------|
G----------------------------------------|
D--8 -----6-------8----------------------|
A--8-x8---6-x8----8-(til the chorus)-----| 
E--6------4-------6----------------------|

chorus

solo
e--------------------------------------------------------------------------|
B--------------------------------------------------------------------------|
G-8--8-8-8-8-7-5--------------5-7-8--8-8-8-8-7-5--10b-8-7-5-7-10b-10--8-7--|
D-----------------8--8-8-8-8-----------------------------------------------|
A--------------------------------------------------------------------------|
E--------------------------------------------------------------------------|

solo cont.
e----------------------------------------|
B----------------------------------------|
G-8--------------------5-7-8---12-13-15--|
D---8-6-5------5-6-8---------------------|
A----------------------------------------|
E----------------------------------------|

that's  it. it's not perfect, but its pretty close. they're a damn good band and they
deserve to have there stuff tabbed. any corrections and crap send to emcee3000@gmail.com.
Comments