Neo - Surreality Chords & Tabs

 

Surreality Chords & Tabs

Neo Chords & Tabs

Version: 2 Type: Tab 0 ratings
1 star 2 stars 3 stars 4 stars 5 stars
comments

Surreality Tab

   
Artist: Neo
Song: Surreality
Album: Monotonous

Tabbed by mod.
(of course all on my own work :)

Tuning:
It's like drop d and a whole step down.
So u get d-a-f-c-b-c.

Riff a
-Chorus-
d |-0-0-0-0-0-0-0-0-0-0-0-0-0-0-0-0-|
A |-0-0-2-2-2/3-3-3-3\2-2-2-2-0-2-0-|
F |-0-0-2-2-2/3-3-3-3\2-2-2-2-0-2-0-|
C |---------------------------------|
B |---------------------------------|
C |---------------------------------|

d |-0-0-0-0-0-0-0-0-0-1-1-1-2-2-2-3-|
a |-2-2-2-2-2/3-3-3-3-3-3-3-4-4-4-5-|
f |-2-2-2-2-2/3-3-3-3-3-3-3-4-4-4-5-|
C |---------------------------------|
B |---------------------------------|
C |---------------------------------|

Riff b
-Heavy Distortion-
D |---------------------------------|
A |---------------------------------|
F |---------------------------------|
c |-1-0-1-0-1-0-3-0-2-0-2-0-2-0-4-0-|
b |-1-0-1-0-1-0-3-0-2-0-2-0-2-0-4-0-|
c |-1-0-1-0-1-0-3-0-2-0-2-0-2-0-4-0-|

D |---------------------------------|
A |---------------------------------|
F |---------------------------------|
C |-1-0-1-0-1-0-3-0-2-0-2-0-2-0-4---|
B |-1-0-1-0-1-0-3-0-2-0-2-0-2-0-4---|
C |-1-0-1-0-1-0-3-0-2-0-2-0-2-0-4---|
[ Tab from: http://www.guitartabs.cc/tabs/n/neo/surreality_tab_ver_2.html ]
Riff c
-Normal-
D |---------------------------------|
A |---------------------------------|
F |---------------------------------|
C |---------------------------------|
B |----0-------0-------0-------0----|
C |0-0---0-0-0---0-3-3---3-3-3---3--|

D |---------------------------------|
A |---------------------------------|
F |---------------------------------|
C |----0-------0--------------------|
B |--------------------1-------1----|
C |2-2---2-2-2---2-1-1---1-1-1-1----|

Riff d
-Chorus-
D |---------------------------------|
A |-------5-------6-------5-4-4-3-3-|
F |-5-6-5---5-6-5---5-6-5---4-4-3-3-|
C |---------------------------------|
B |---------------------------------|
C |---------------------------------|

Riff E
-Heavy Distortion-
D |---------------------------------|
A |---------------------------------|
F |---------------------------------|
C |-3-3-----1-1-0-0-3-3-----1-1-0-0-|
b |-3-3-3-3-1-1-0-0-3-3-3-3-1-1-0-0-|
C |-----3-3-----0-0-----3-3-----0-0-|

D |---------------------------------|
A |---------------------------------|
F |---------------------------------|
C |-3-3-----2-1-0-1-3-3-----5---0---|
B |-3-3-3-3-2-1-0-1-3-4-3-3-5---0---|
C |-----3-3-----0-1-----3-4-----0---|


Play it this way:

Riff A 1 time
Riff B 2 times

Riff C 2 times
Riff D 1 time
Riff B 2 times

Riff C 2 times
Riff D 1 time
Riff B 2 times

Riff C 2 times
Riff D 1 time
Riff B 2 times

Riff E 1 time

Ok, that's it.
Mistakes in tab or if u have any questions:
mod7t@web.de
Comments