Nemesis - Remember The Stars Chords & Tabs

 

Remember The Stars Chords & Tabs

Nemesis Chords & Tabs

Version: 1 Type: Tab 0 ratings
1 star 2 stars 3 stars 4 stars 5 stars
comments

Remember The Stars Tab

   
-==========================-
Nemesis - Remember The Stars
-==========================-

Artist		-	Nemesis
Song		-	Remember The Stars
Tabbed By	-	Clayton Botha
e-Mail		-	theno69@hotmail.com
Tuning		-	Standard
Notes		-	This is an amazing song, some of the Rhythm
			Patterns were hard to try tab out but I think  
			I've got the chords right! You can listen to 
			The song for the strumming patterns. ENJOY!!!

 -=Intro=-   Guitar(1) (Clean)
e||-12-12-12-12-12-12-11-11-11-14-11-11-||
B||--x--------x--------x--------x-----x-||
G||--9--------9--------9--------9-----9-||: Loop
D||-------------------------------------||: This
A||-------------------------------------||
E||-------------------------------------||

   Guitar(2)  (Kick in the distortion)
e||---------||-------------|------|-----||
B||---------||-------------|------|-----||
G||-x-x-x-x-||-9-9-9-9-9-9-8-8-8-11-8-8-||
D||-x-x-x-x-||-9-9-9-9-9-9-9-9-9--9-9-9-||
A||-x-x-x-x-||-7-7-7-7-7-7-7-7-7--7-7-7-||
E||---------||-------------|------|-----||


  (Heres the base-line)
e||-------------------------|-----------||
B||-------------------------|-----------||
G||-------------------------|-----------||
D||-6-6-6-6-6-6-------------|-----------||
A||-------------7-7-7-------|-----------||
E||-------------------5-5-5-|-4-4-4-----||


 -=Verse=-  Guitar(1) (Clean)
e||-12------12------11------14----------||
B||----12~~~---12~~~---12~~~---12~~~----||
G||------(9)-----(9)-----(9)-----(9)----||
D||-------------------------------------||
A||-------------------------------------||
E||-------------------------------------||
   
   Guitar(2) (Rythm)
e||-0-0-0-0-0-0-0-0-|------------0-0-0--||
B||-0-0-0-0-0-0-0-0-|------------0-0-0--||
G||-9-9-9-9-9-9-9-9-|--------9-9-9-9-9--||: Build On
D||-9-9-9-9-9-9-9-9-|--7-7-7-7-7-7-7-7--||: "Wrong"
A||-7-7-7-7-7-7-7-7-|--7-7-7-7-7-7-7-7--||
E||-0-0-0-0-0-0-0-0-|--5-5-5-5-5-5-5-5--||


 -=Chorus=-   (Distorted)
e||---------||-------------|------|-----||
B||---------||-------------|------|-----||
G||-x-x-x-x-||-9-9-9-9-9-9-8-8-8-11-8-8-||
D||-x-x-x-x-||-9-9-9-9-9-9-9-9-9--9-9-9-||
A||-x-x-x-x-||-7-7-7-7-7-7-7-7-7--7-7-7-||
E||---------||-------------|------|-----||

[ Tab from: http://www.guitartabs.cc/tabs/n/nemesis/remember_the_stars_tab.html ]
-=Outro=- (Strum 057700 Until The End)
e||-0-0-0-0---------------------0-0~~~--||
B||-0-0-0-0---------------------0-0~~~--||
G||-1-1-1-1---------------------1-1~~~--||: Play This
D||-2-2-2-2-6-6-6h7-6-4-4-4h6-4-2-2~~~--||: Twice
A||-2-2-2-2-7-7-7-7-7-4-4-4-4-4-2-2~~~--||
E||-0-0-0-0-5-5-5-5-5-2-2-2-2-2-0-0~~~--||

  (Lead - Clean (Twice))
e||--------------------------------------------------------------||-0-|
B||--------------------------------------------------------------||-0-|
G||-9-9-9-11-11-13-13-13h14-14-14p13-13-11-11h13-13-11-11-9-9~~~-||-9-|
D||--------------------------------------------------------------||-9-|
A||--------------------------------------------------------------||-7-|
E||--------------------------------------------------------------||-0-|

-=====================================================================-
| -=================================================================- |
| |     --      -======-  -=-   -=- -======- -====---====- -====-   | |
| |    //\\    //||____  // \\_// \\ ||____  ||       ||   ||       | |
| |   //  \\  // ||====-||   \_/   ||||====- -====-   ||   -====-   | |
| |  //    \\//  ||____ ||         ||||____      ||   ||       ||   | |
| | ==      --  -======-==         =-======---====- -====---====-   | |
| -=================================================================- |
-=====================================================================-

-=Lyrics=-

So hand me your whole life
Whatever it is for
It's broken and empty
Just like it was before

A hate to tell you lies
So know that there is more
When all that you know is that i 
Did you wrong
That i did you wrong

	So tell me all your fairytales
	Of moonlit skies and sunlit trails
	But know that they're just fairytales
	To me

	And the moment you become alive
	I'll be waiting right there by your side
	So know that you are everything 
	To me, to me

Forgiveness is in me
Forgiveness is in you
I've heard this before
But it's different this time

Remember all the stars
And how we love them so
I will not forget
But this time i musn't know
This time i mustn't know

	So tell me all your fairytales
	Of moonlit skies and sunlit trails
	But know that they're just fairytales
	To me

	And the moment you become alive
	I'll be waiting right there by your side
	So know that you are everything 
	To me, to me

I know just where you are
Cause i've been there once before
An open heart is waiting there for you
Remember the stars

-====================================================================-
 Thanks for viewing my tab! Any questions, comments or death treats??
 I'm open to all corrections so please e-mail me: theno69@hotmail.com
-====================================================================-
Comments