Nemesis - Faithless Chords & Tabs

 

Faithless Chords & Tabs

Nemesis Chords & Tabs

Version: 1 Type: Tab 0 ratings
1 star 2 stars 3 stars 4 stars 5 stars
comments

Faithless Tab

// - SLIDE
STANDARD TUNING CAPO ON THIRD FRET.
INTRO

e|---------------------------------------------------------------------------|
B|---------------------------------------------------------------------------|
G|----------12-12-10--9-10-10----------8-8-6-5-6-------10-10-8-7-8-----------|
D|10-10-10--10-10-10-10-10-10---6-6-6--6-6-6-6-6--8-8-8-8--8-8-8-8--10-10-10-|
A|-8--8--8----------------------4-4-4-------------6-6-6--------------8--8--8-|REPEAT
E|---------------------------------------------------------------------------|LAST MEASURE x2
[ Tab from: http://www.guitartabs.cc/tabs/n/nemesis/faithless_tab.html ]
VERSE
e|---------------------------------------------------------------------------|
B|---------------------------------------------------------------------------|
G|------12----------10----------8-------6---------10-------8-----------------|
D|10 10-10-10-10-10-10-x2-6-6-6-6-6-6-6-6-X2-8-8-8-8-8-8-8-8-X2--------------|
A|-8--8-----8--8--8-------4-4-4---4-4-4------6-6-6---6-6-6-------------------|
E|---------------------------------------------------------------------------|

PRECHORUS
e|---------------------------------------------------------------------------|
B|---------------------------------------------------------------------------|
G|--------------------------------------12------10---------------------------|
D|-----------------8888888888888888-10101010101010---------------------------|
A|8888888888888888-6666666666666666--8-8---8-8-8-- X2------------------------|
E|6666666666666666-----------------------------------------------------------|

CHORUS
e|---------------------------------------------------------------------------|
B|---------------------------------------------------------------------------|
G|-----6-------------8/10//13//15--------------------------------------------|
D|8----6---6---6/8-----------------------------------------------------------|
A|8----4---6---6/8---6//8//11//13--------------------------------------------|
E|6--------4---4/6-----------------------------------------------------------|
Comments