Nelly Furtado - Try Chords & Tabs

 

Try Chords & Tabs

Nelly Furtado Chords & Tabs

Version: 2 Type: Tab 0 ratings
1 star 2 stars 3 stars 4 stars 5 stars
comments

Try Tab

   
#----------------------------------PLEASE NOTE---------------------------------#
#This file is the author's own work and represents their interpretation of the #
#song. You may only use this file for private study, scholarship, or research. #
#------------------------------------------------------------------------------##

Hi, First off, I haven't tabbed EVERY SINGLE bar!!! The chords stay the same, but you
playing the rhythm of the strum different as the song progresses.

Second - The BPM is about 47, so you can set your metronome to that.

Third - It's a cool song, enjoy

Let me know if you have any pointers or criticisms on it.

tsettsyung@hotmail.com

(P.S. Steve Vai, John Petrucci and Nuno Bettencourt rule!)

Mike


Gtr I (E A D G B E) - 'Untitled'
[ Tab from: http://www.guitartabs.cc/tabs/n/nelly_furtado/try_tab_ver_2.html ]
  Q=47
 4/4
               Gtr I
                 PM  PM    PM  PM     PM  PM  PM  PM
  W            S S S T T S S S T T  S S S S S S S S
|----------||----------------------------------------||
|----------||o-0---0---0-0---0---0------------------o||
|----------||--0---0---0-0---0---0-------------------||
|----------||--5---5-5-5-4---4-4-4--7---5---4---5----||
|----------||o-7-7-7-7-7-5-5-5-5-5--3-3-3-3-3-3-3-3-o||
|----------||--0-0-0-0-0-----------------------------||


      PM  PM    PM  PM    PM  PM  PM  PM
    S S S T T S S S T T S S S S S S S S  6x
||---------------------------------------||
||o-0---0---0-0---0---0-----------------o||
||--0---0---0-0---0---0------------------||
||--5---5-5-5-4---4-4-4-7---5---4---5----||
||o-7-7-7-7-7-5-5-5-5-5-3-3-3-3-3-3-3-3-o||
||--0-0-0-0-0----------------------------||


    E S T T E S T T E S T T E S T T  4x
||----0---0-0-0---0-3-3---3-2-2---2--||
||o---0---0-1-1---1-3-3---3-3-3---3-o||
||--0-0-0-2-0-0-0-0-0-0---0-2-2-2----||
||--2-2-2---2-2-2---0-0-0---0-0-0----||
||o-2-2-2---3-3-3---2-2-2-----------o||
||--0-0-------------3-3--------------||
Comments