Nelly - Over And Over Chords & Tabs

 

Over And Over Chords & Tabs

Nelly Chords & Tabs

Version: 4 Type: Tab 0 ratings
1 star 2 stars 3 stars 4 stars 5 stars
comments

Over And Over Tab

Standard Tunning 

h=hammer on
p=pull off

e|---------------|---------------|---------------|--------------|
B|---------------|---------------|---------------|--------------|           
G|---------------|---------------|---------------|--------------|
D|-----4h5-5p4---|-----4h5-5p4---|------5p4---4--|-----5p4---4--|
A|---5---------5-|---5---------5-|---5------5----|---5-----5----|
E|-3-------------|-3-------------|-0-------------|-0------------|

While this is playing Tim McGraw solos and plays harmonics

[ Tab from: http://www.guitartabs.cc/tabs/n/nelly/over_and_over_tab_ver_4.html ]
This is the played as soon as Nelly starts singing and is also played throughout the song.

e----------------------------------------------------------------------------|
B--3h5--8--3--15--12----10h8-8-10h8-8-8---12----10-10h12---------------------|
G----------------------------------------------------------------------------|
D----------------------------------------------------------------------------|
A----------------------------------------------------------------------------|
E----------------------------------------------------------------------------|


Key: /= slide
     h= hammer on
     += harmonics..(barely touch the string and pick it, you should hear a ringing sound.)
Comments