Nelly - Over And Over Chords & Tabs

 

Over And Over Chords & Tabs

Nelly Chords & Tabs

Version: 3 Type: Tab 0 ratings
1 star 2 stars 3 stars 4 stars 5 stars
comments

Over And Over Tab

This is my first tab and im 100% sure it's right. You'll have to listen to the song to 
the timing right.


This is what is played in the intro and throughout the song

e----------------------------------------------------------------------------|
B--------------------------------------------------8+---------------8+-------|
G----------------------------------------------------------------------------|
D------4/5-5/4----------4/5-5/4----------5/4---4----------5/4---4------------|
A----5---------5------5---------5------5-----5---5------5-----5---5----------|
E--3----------------3----------------0----------------0----------------------|
[ Tab from: http://www.guitartabs.cc/tabs/n/nelly/over_and_over_tab_ver_3.html ]
This is the played as soon as Nelly starts singing and is also played throughout the song.

e----------------------------------------------------------------------------|
B--3h5--8--3--15--12----10h8-8-10h8-8-8---12----10-10h12---------------------|
G----------------------------------------------------------------------------|
D----------------------------------------------------------------------------|
A----------------------------------------------------------------------------|
E----------------------------------------------------------------------------|


Key: /= slide
     h= hammer on
     += harmonics..(barely touch the string and pick it, you should hear a ringing sound.)
Comments