Nelly - Number One Chords & Tabs

 

Number One Chords & Tabs

Nelly Chords & Tabs

Version: 2 Type: Tab 0 ratings
1 star 2 stars 3 stars 4 stars 5 stars
comments

Number One Tab


This is my first tab, dedicated to Namrata. The second part, where it 
gets higher, I got from a different website, so that part isn't mine, 
but the beginning part is. On the first "chord" strum up, and the
rest is very easy, just listen to the song for the correct timing.
Enjoy! 
-Nichole
[ Tab from: http://www.guitartabs.cc/tabs/n/nelly/number_one_tab_ver_2.html ]
[-0-----------------0------------------0-----------------------------]
[-1--1-----------------1-----------------1---------------------------]
[-------2----------------2-----------------2-------------------------]
[--------------------------------------------------------------------]
[---------------0------------------0------------------0--------------]
[----------0--0--------------0--0---------------0--0-----------------]


[--3--5--3--8--7--3--5--3--5-----------------------------------------]
[--------------------------------------------------------------------]
[--------------------------------------------------------------------]
[--------------------------------------------------------------------]
[--------------------------------------------------------------------]
[--------------------------------------------------------------------]
Comments