Nelly - Dilemma Chords & Tabs

 

Dilemma Chords & Tabs

Nelly Chords & Tabs

Version: 2 Type: Tab 1 rating
1 star 2 stars 3 stars 4 stars 5 stars
comments

Dilemma Tab

I dunno if thats right but...thats how i play it...and its sounds like
it so....

NELLY AND KELLY ROWLAND
DILEMMA
[ Tab from: http://www.guitartabs.cc/tabs/n/nelly/dilemma_tab_ver_2.html ]
---5-----5--------------------------------------
-6---6-----8---5-6---8--5-----8--6--------------
-------7-------------------5--------------------
------------------------------------------------
------------------------------------------------
------------------------------------------------


---5-----5--------------------------------------
-6---6-----8---5-6---8--5-----8--6--------------
-------7-------------------5--------------------
------------------------------------------------
------------------------------------------------
------------------------------------------------
Comments