Nekromantix - Who Killed The Cheerleader Chords & Tabs

 

Who Killed The Cheerleader Chords & Tabs

Nekromantix Chords & Tabs

Version: 2 Type: Tab 0 ratings
1 star 2 stars 3 stars 4 stars 5 stars
comments

Who Killed The Cheerleader Tab

   
-------------------------------------------------------------------------------
			     WHO KILLED THE CHEERLEADER? - Nekromantix
-------------------------------------------------------------------------------
Tabbed by: SPIKEstrip (based on a tab by xxxAntiFlagxxx)
Email: fossil@rednecks.com

Tuning: Standard (EADGBe)

Intro

e|---------------------------------------------------------------------------|
B|---------------------------------------------------------------------------|
G|---------------------------------------------------------------------------|
D|-\8/10---------------------------------------------------------------------|
A|-\8/10------------8--8h10--8--6\5-----6--8--8h10--8--6\5-----6--8--8h10--10|
E|-\6/8-------8--11------------------6----------------------6----------------|
[ Tab from: http://www.guitartabs.cc/tabs/n/nekromantix/who_killed_the_cheerleader_tab_ver_2.html ]
e|---------------------------------------------------------------------------|
B|---------------------------------------------------------------------------|
G|---------------------------------------------------------------------------|
D|-6-66-8-88-----------------------------------------------------------------|
A|-6-66-8-88-------8--8h10--8--6\5-----6--8--8h10--8--6\5-----6--8--8h10--10-|
E|-4-44-6-66-8--11------------------6----------------------6-----------------|

e|---------------------------------------------------------------------------|
B|---------------------------------------------------------------------------|
G|---------------------------------------------------------------------------|
D|-6-66-6-66-3-33-3-33-3-33-3-3----------------------------------------------|
A|-6-66-6-66-3-33-3-33-3-33-3-3----------------------------------------------|
E|-4-44-4-44-1-11-1-11-1-11-1-1----------------------------------------------|

| /  slide up
| \  slide down
| h  hammer-on
===============================================================================
Comments