Nekromantix - Who Killed The Cheerleader Chords & Tabs

 

Who Killed The Cheerleader Chords & Tabs

Nekromantix Chords & Tabs

Version: 1 Type: Tab 0 ratings
1 star 2 stars 3 stars 4 stars 5 stars
comments

Who Killed The Cheerleader Tab

Nekromantix - Who Killed the Cheerleader
[ Tab from: http://www.guitartabs.cc/tabs/n/nekromantix/who_killed_the_cheerleader_tab.html ]
Intro
e-------------------------------------------------
B-------------------------------------------------
G-------------------------------------------------
D-8/10--------------------------------------------
A-8/10-------8-10-8------6-8-10-8-6---6-8-10-8-10-
E-6/8---8-11--------11-6------------6-------------

e-------------------------------------------------
B-------------------------------------------------
G-------------------------------------------------
D-6-6-6--8-8-8------------------------------------ (repeat)
A-6-6-6--8-8-8------------------------------------
E-4-4-4--6-6-6------------------------------------

Let Me Know if There's a Better Way
Comments