Nekromantix - Last Night I Saved An Angel Chords & Tabs

 

Last Night I Saved An Angel Chords & Tabs

Nekromantix Chords & Tabs

Version: 1 Type: Bass Tab 0 ratings
1 star 2 stars 3 stars 4 stars 5 stars
comments

Last Night I Saved An Angel Bass Tab

Band: Nekromantix
Song: Last Night I saved an Angel
Tabbed By: Brittney

Intro:
G|------------------------------------------|
D|-----------5-55-5-------------------------|
A|---5-55-5-----------0-00-00-00-0----------| x3
E|------------------------------------------|

Verse:
G|------------------------------------------|
D|--------------5-55-5----------------------|
A|-----5-55-5------------0-00-00-00-0-------|x3
E|------------------------------------------|

G|------------------------------------------|
D|------------5-55-5------------------------|
A|---5-55-5-------------0-00-00-0-2-3-4-----|
E|------------------------------------------|
[ Tab from: http://www.guitartabs.cc/tabs/n/nekromantix/last_night_i_saved_an_angel_btab.html ]
Chorus: 2x
G|-------------------------------------------------|
D|-------------55555555----------------------------|
A|---5555555--------------00000000-11-22-33-44-----|
E|-------------------------------------------------|
                                                                               
G|-----------------------------------------------|
D|------------55555555--------------55-33-22-11--|
A|55555555----------------00000000---------------|
E|-----------------------------------------------|


Break:
G|-------------------------------------|
D|--------------5-55-5-----------------|
A|-----5-55-5------------0-00-00-00-0--|x2
E|-------------------------------------|

Verse:
G|-------------------------------------|
D|--------------5-55-5-----------------|
A|-----5-55-5------------0-00-00-00-0--|x2
E|-------------------------------------|

Chorus: x2

Guitar Solo:
G|---------------------------------|
D|--3-33-3--2-22-2--0-00-00-00-0---|
A|---------------------------------| x4
E|---------------------------------|

Chorus  x4

Thats it. It's extremly easy and won't take very long to learn. it a very repeatitive
song so but still good.
Comments