Nekromantix - Haunted Cathouse Chords & Tabs

 

Haunted Cathouse Chords & Tabs

Nekromantix Chords & Tabs

Version: 1 Type: Tab 0 ratings
1 star 2 stars 3 stars 4 stars 5 stars
comments

Haunted Cathouse Tab

   
 Gm                                             D 
E|----------|-------------|------------------|-------------|---------------------| 
B|----------|-------------|------------------|-------------|---------------------| 
G|----------|-------------|------------------|-------------|---------------------| 
D|----------|---5--3--2---|---5--3--2--------|---5--3--2---|-7--7-7-7-7-7--------| 
A|----------|-------------|------------------|-------------|-5--5-5-5-5-5--5-3---| 
E|----0-1-2-|-3-----------|-3----------0-1-2-|-3-----------|-------------------6-| 
[ Tab from: http://www.guitartabs.cc/tabs/n/nekromantix/haunted_cathouse_tab.html ]
   Gm            Eb                 Bb                 D 
E|-------------|------------------|------------------|--------------------| 
B|-------------|------------------|------------------|--------------------| 
G|-------------|------------------|------------------|--------------------| 
D|-------------|------------------|------3-----------|------3----4--------| 
A|-----3\5-3---|-3-----6------3---|-3\5----------3---|-3\5-----5---5-3----| 
E|-3---------6-|---6-3------6---6-|----------3p6---6-|-----------------6--| 

   Gm            Eb                 Bb                 D 
E|-------------|------------------|------------------|-------------------| 
B|-------------|------------------|------------------|-------------------| 
G|-------------|------------------|------------------|---------------0-2-| 
D|-------------|------------------|------3-----------|------3----4-------| 
A|-----3\5-3---|-3-----6------3---|-3\5----------3---|-3\5-----5---5-----| 
E|-3---------6-|---6-3------6---6-|----------3p6---6-|-------------------|
Comments