Nekromantix - Gargoyles Over Copenhagen Chords & Tabs

 

Gargoyles Over Copenhagen Chords & Tabs

Nekromantix Chords & Tabs

Version: 1 Type: Tab 0 ratings
1 star 2 stars 3 stars 4 stars 5 stars
comments

Gargoyles Over Copenhagen Tab

   
Cm                                          Bb 
E|---------------------|---------------------|---------------------|---------------------| 
B|---------------------|---------------------|---------------------|---------------------| 
G|---------------------|---------------------|---------------------|---------------------| 
D|-10-8-10-8-10-8-10-8-|-10-8-10-8-10-8-10-8-|-10-8-10-8-10-8-10-8-|-10-8-10-8-10-8-10-8-| 
A|---------------------|---------------------|---------------------|---------------------| 
E|---------------------|---------------------|---------------------|---------------------| 
 |                     |                     |                     |                     | 
G|---------------------|---------------------|---------------------|---------------------| 
D|---------------------|---------------------|---------------------|---------------------| 
A|-3----3----3----3----|-3----3----3----3----|-1----1----1----1----|-1----1----1----1----| 
E|---------------------|---------------------|---------------------|---------------------| 
[ Tab from: http://www.guitartabs.cc/tabs/n/nekromantix/gargoyles_over_copenhagen_tab.html ]
   Eb                                          Ab                F 
E|---------------------|---------------------|-----------------|------------------| 
B|---------------------|---------------------|-----------------|------------------| 
G|---------------------|---------------------|---------5-5-----|------(10)--------| 
D|-10-8-10-8-10-8-10-8-|-10-8-10-8-10-8-10-8-|-6-6-8-8-----8-6-|-------10---10----| 
A|---------------------|---------------------|-----------------|-8-8-8---------8--| 
E|---------------------|---------------------|-----------------|------------------| 
 |                     |                     |                 |                  | 
G|---------------------|---------------------|-----------------|------------------| 
D|-1----1----1----1----|-1----1----1----1----|-----------------|-3---3---3---3----| 
A|---------------------|---------------------|-----------------|------------------| 
E|---------------------|---------------------|-4---4---4---4---|------------------| 

Bass in chorus (variations may occur): 
G|-------------|-------------|-------8-----|-------8-----| 
D|-------------|-------------|----8-----8--|----8-----8--| 
A|-3--3--3--3--|-3--3--3--3--|-6-----------|-6-----------| 
E|-------------|-------------|-------------|-------------| 

G|-------8-----|-------8-----|-------------|-------------| 
D|----8-----8--|----8-----8--|-------------|-------------| 
A|-6-----------|-6-----------|-------------|-------------| 
E|-------------|-------------|-4--4--4--4--|-1--1--1--1--| 

(Solo) 

   Dm                                        F    G 
G|-------0--2--|-------0--2--|-------0--2--|-----------| 
D|-0--3--------|-0--3--------|-0--3--------|-----------| 
A|-------------|-------------|-------------|-----------| 
E|-------------|-------------|-------------|-1----3----| 

   Dm                                        F    G 
G|-------0--2--|-------0--2--|-------0--2--|-----------| 
D|-0--3--------|-0--3--------|-0--3--------|-----------| 
A|-------------|-------------|-------------|-----------| 
E|-------------|-------------|-------------|-1----3----| 

   Dm                                        F    G 
G|-------0--2--|-------0--2--|-------0--2--|-----------| 
D|-0--3--------|-0--3--------|-0--3--------|-----------| 
A|-------------|-------------|-------------|-----------| 
E|-------------|-------------|-------------|-1----3----| 

   Dm                                        F    G      F    G 
G|-------0--2--|-------0--2--|-------0--2--|-----------|-----------| 
D|-0--3--------|-0--3--------|-0--3--------|-----------|-----------| 
A|-------------|-------------|-------------|-----------|-----------| 
E|-------------|-------------|-------------|-1----3----|-1----3----|
Comments