Neil Young - Tell Me Why Chords & Tabs

 

Tell Me Why Chords & Tabs

Neil Young Chords & Tabs

Version: 2 Type: Tab 0 ratings
1 star 2 stars 3 stars 4 stars 5 stars
comments

Tell Me Why Tab

   
hey, im frank.  im 13 and ive been playing guitar for a little more than a year.  my
favrite bands r neil young, the beatles, grateful dead, and clapton.  this is my version
of tell me why by neil young.  cd- after the gold rush.

h- hammer on
p- pull off
LOOK FOR REPEATS

VERSE:
e---------------------------------3---------------------------------|
B----------------3---------3-----3-3------------1-------1-------1---|
G----------------3---------3----2-----0---------0-------0-------0---|
D----------------3---------3-------------3------2-------2-------2---|
A---------0--1-------3h5--------------------3---------------3-------|
E---1--3--------------------------------------------3---------------|

e---------------------------------------------------1-------------|
B-------1-------3---------3-------3---------3-------1---------3---|
G-------0-------3---------3-------3---------3-------2---------3---|
D-------2-------3---------3-------3---------3-------3---------3---|
A-------------------3h5---------------3h5-----------3-------------|
E---3-------3-----------------3-----------------1-------3h5-------|

e-------1------------------------------3-------------------------|
B-------1-------------3---------3-----3-3------------1-------1---|
G-------2-------------3---------3----2-----0---------0-------0---|
D-------3-------------3---------3-------------3------2-------2---|
A-------3------0--1-------3h5--------------------3---------------|
E---1-------3--------------------------------------------3-------|

e-----------------------------------------------------------1---|
B-------1-------1-------3---------3-------3---------3-------1---|
G-------0-------0-------3---------3-------3---------3-------2---|
D-------2-------2-------3---------3-------3---------3-------3---|
A---3-----------------------3h5---------------3h5-----------3---|
E-----------3-------3-----------------3-----------------1-------|

e-----------------1-------------|
B---------3-------1---------3---|
G---------3-------2---------3---|
D---------3-------3---------3---|
A-----------------3-------------|
E---3h5-------1-------3h5-------|
[ Tab from: http://www.guitartabs.cc/tabs/n/neil_young/tell_me_why_tab_ver_2.html ]
CHORUS:
e------------------------------------3----3------1----1----1----1---|
B-------1-------1-------1-------1----3----3------1----1----1----1---|
G-------0-------0-------0-------0----0h2--0------2----3p2--3p2--2---|
D-------2-------2-------2-------2------------3---3----3----3----3---|
A---3---------------3----------------------------3----3----3----3---|
E-----------3---------------3--------------------1----1----1----1---|

e------------------------------------3----3------1---|
B-------1-------1-------1-------1----3----3------1---|
G-------0-------0-------0-------0----0h2--0------2---|
D-------2-------2-------2-------2------------3---3---|
A---3---------------3----------------------------3---|
E-----------3---------------3--------------------1---|

           F                               Bflat
"...Is it hard to make arrangements with yourself?
                 C            Bflat              Am            Dm
    When you're old enough to repay, but young enough to sell."

e------------------------------3---------------------------------|
B-------------3---------3-----3-3------------1-------1-------1---|
G-------------3---------3----2-----0---------0-------0-------0---|
D-------------3---------3-------------3------2-------2-------2---|
A------0--1-------3h5--------------------3---------------3-------|
E---3--------------------------------------------3---------------|

e-------------------------------------------------1----------------|
B-------------3---------3-------3---------3-------1----------------|
G-------------3---------3-------3---------3-------2----------------|
D-------------3---------3-------3---------3-------3------------3---|
A---1--0----------3h5---------------3h5-----------3-------3h5------|
E---------3-----------------3-----------------1-------3h5----------|

e-------1---|
B-------1---|
G-------2---|
D-------3---|
A-------3---|
E---1---1---|


    Lyrics:
  Sailing hardships through broken harbers,
out on the waves through the night.            VERSE
  Still a searcher, must ride the dark horse,
racing along his fright.

Tell me why, tell me why.
  Is it hard to make arrangements with yourself?              CHORUS
  When you're old enough to repay, but young enough to sell.

  Tell me lies, later come and see me,
I'll be around for awhile.                    VERSE
  I am lonely but you can free me,
all in the way that you smile.

Tell me why, tell me why.
  Is it hard to make arrangements with yourself?              CHORUS
  When you're old enough to repay, but young enough to sell.
   (VERSE)
Tell me why, tell me why.
  Is it hard tom ake arrangements with yourself?              CHORUS
  When you're old enough to repay but young enough to sell.


    there you go.  thats pretty much it.  good luck.  FRANK MINELLA
Comments