Neil Young - Rockin In The Free World Chords & Tabs

 

Rockin In The Free World Chords & Tabs

Neil Young Chords & Tabs

Version: 2 Type: Tab 0 ratings
1 star 2 stars 3 stars 4 stars 5 stars
comments

Rockin In The Free World Tab

   
	
        |Verse1
	|Chorus (w\interlude)
        |Verse2
  Order |Chorus (w\interlude)
        |Solo
	|Verse3 (different see below)
	|Chorus (No interlude)

Verse 1+2
    Em     D   C
e---------2-2-0-0-|\
B---------3-3-1-1-| \
G---------2-2-0-0-|  \ 8x  
D-2-2-2-2-0-0-2-2-|  /
A-2-2-2-2-----3-3-| /
E-0-0-0-0-----0-0-|/
Chorus
     G       D         C       Em
e-3-3-3-3-2-2-2-2-0-0-0-0-0-0-0-0-|\
B-3-3-3-3-3-3-3-3-1-1-1-1-1-1-0-0-| \
G-0-0-0-0-2-2-2-2-0-0-0-0-0-0-0-0-|  \ 4x
D-0-0-0-0-0-0-0-0-2-2-2-2-2-2-2-2-|  /
A-2-2-2-2---------3-3-3-3-3-3-2-2-| / =
E-3-3-3-3---------0-0-0-0-0-0-0-0-|/
Interlude comes after each chorus
   G
e-3-3-0-0-0-0-|\
B-3-3-2-2-2-2-| \
G-0-0-2-2-2-2-|  \     
D-0-0-2-2-2-2-|  / 3x
A-2-2-0-0-0-0-| /
E-3-3---------|/

Bass Verse
(i think its)

G|--------------------------------
D|--------------------------------
A|-------------5-5-5-5-5-3-3-3-3-3
E|-0-0-0-0-0-0--------------------

Solo is correct
Unknown effect. Not sure what they use, maybe Echo or Rotovibe?
Use lots of reverb to get the true Neil Young & Crazy Horse effect.

e-12-12-12-12-12-12-12---^^^^^^^^^-------------------------------|
B-12-12-12-12-12-12----15--15-15-15-12-------^^^^^^^--12-------12|
G--------------------------------------15-12-12-12h14----14-14---|
D----------------------------------------------------------------|
A----------------------------------------------------------------|
E----------------------------------------------------------------|
[ Tab from: http://www.guitartabs.cc/tabs/n/neil_young/rockin_in_the_free_world_tab_ver_2.html ]
e-----------^^^^^12-15b15b15^^^15b---12--------------------------|
B-12-------12----12---------------15-------------------14--------|
G----14b14-14-14------------------------14-14-12-^^^^^-14-12-----|
D------------------------------------------------14-14-----------|
A----------------------------------------------------------------|
E----------------------------------------------------------------|

e-------------------------------0---------------------12-12-12-12|
B-------------------------------0-15---------------15-15-15-15-15|
G12----------12--^^^^^------12b14b---14-12-14b-14b---------------|
D---14-12----12-14----14-14--------------------------------------|
A---------14-----------------------------------------------------|
E----------------------------------------------------------------|

e-12-12---------^^^^^-12----12-12b---15-15^^^^14 15--------------|
B-15-15-12-15-15---------15b---15b15----------------15-----------|
G-------------------------------0-------------------15-----------|
D----------------------------------------------------------------|
A----------------------------------------------------------------|
E----------------------------------------------------------------|

e-15-14-12^^^^12^^^15-14-12----12-14-12-15b----------------------|
B---------------------------15-----------------------------------|
G----------------------------------------------------------------|
D----------------------------------------------------------------|
A----------------------------------------------------------------|
E----------------------------------------------------------------|

Give me an email or something and tell me what you think
dannolder@yahoo.com, and always, Keep on rockin in the free world.

Kerry-Edwards 2004
Comments